Manic Street Preachers


piesne (206)

  texty (174)
  akordy (15)
  taby (15)
  preklady (17)


články (131)
Fotky (145)
diskusia
videá
diskografia
v obchode
odkazy
koncerty
sťahuj



pridaj vlastný článok

Manic Street Preachers:
Manic Street Preachers na Rock for People připomněli 90. léta - ceskenoviny.cz


Colours Of Ostrava:
TOP 7 festivalových headlinerů 2019: Manic Street Preachers na Rock for People
i The Cure na Colours of Ostrava
- ireport.cz


Manic Street Preachers:
Rock for People oznamuje další hvězdu, dorazí Manic Street Preachers - ireport.cz


Manic Street Preachers:
Manic Street Preachers - This Is My Truth Tell Me Yours - musicserver.cz


Manic Street Preachers:
Manics nabídli už šestý singl z nové desky - abradio.cz


Manic Street Preachers:
RECENZE: Sklizeň kapely Manic Street Preachers - novinky.cz


Manic Street Preachers:
Manic Street Preachers se nebojí podlehnout minulosti, natočili sympatickou a
zábavnou desku
- aktualne.cz


Manic Street Preachers:
Rockeři z devadesátých let se vracejí na scénu - denik.cz


Manic Street Preachers:
MANIC STREET PREACHERS míří do kin - spark-rockmagazine.cz


Manic Street Preachers:
Film o Manic Street Preachers v českých kinech - radiobeat.cz


 

Manic Street Preachers

Fanúšikov: 1



A B C Č D E F G H CH I J K L Ľ M N O P Q R S Š T U V W X Y Z Ž



ako:
Manic Street Preachers - A design for life
Manic Street Preachers - A design for life

tlač

edituj
Pesničku videlo 3960 návštevníkov.

Kvalita tabov : bez hodnotenia
Hodnotilo ľudí: 0 ohodnoť aj ty


e ---------------------------
b -------0-----------0-------
g -----5---5-------5---5-----
d ---5-------5---5-------5---
a -3-----------3-----------3-
e ---------------------------

Verse 1:

e -------------------------------------------------
b -------0-----------0-----------0-----------0-----
g -----5---5-------5---5-------5---5-------5---5---
d ---5-------5---5-------5---5-------5---5-------5-
a -3-----------3-----------3-----------3-----------
e -------------------------------------------------
Libraries gave us power

e -------------------------------------------------
b -------0-----------0-----------0-----------0-----
g -----5---5-------5---5-------5---5-------5---5---
d ---3-------3---3-------3---3-------3---3-------3-
a -5-----------5-----------5-----------5-----------
e -------------------------------------------------
Then work came and made us free

e -------------------------------------------------
b -------------------------------------------------
g -------4-----------4-----------4-----------4-----
d -----3---3-------3---3-------3---3-------3---3---
a ---5-------5---5-------5---5-------5---5-------5-
e -3-----------3-----------3-----------3-----------
At what price now


e -------3-----------3-----------------------------
b -----3---3-------3---3---------6-----------6-----
g -----------------------------5---5-------5---5---
d ---5-----------5-------5---6-------6---6-------6-
a -6---------5-6-----------5-----------5-----------
e -------------------------------------------------
For a shallow piece of dignity

Break:

e ---------------------------
b -------0-----------0-------
g -----5---5-------5---5-----
d ---5-------5---5-------5---
a -3-----------3-----------3-
e ---------------------------

e ---------------------------
b -------0-----------0-------
g -----5---5-------5---5-----
d ---5-------5---5-------5---
a -3-----------3-----------3-
e ---------------------------

Verse 2:

e -------------------------------------------------
b -------0-----------0-----------0-----------0-----
g -----5---5-------5---5-------5---5-------5---5---
d ---5-------5---5-------5---5-------5---5-------5-
a -3-----------3-----------3-----------3-----------
e -------------------------------------------------
I wish I had a bottle

e -------------------------------------------------
b -------0-----------0-----------0-----------0-----
g -----5---5-------5---5-------5---5-------5---5---
d ---3-------3---3-------3---3-------3---3-------3-
a -5-----------5-----------5-----------5-----------
e -------------------------------------------------
Right here in my pretty face

e -------------------------------------------------
b -------------------------------------------------
g -------4-----------4-----------4-----------4-----
d -----3---3-------3---3-------3---3-------3---3---
a ---5-------5---5-------5---5-------5---5-------5-
e -3-----------3-----------3-----------3-----------
To wear the scars


e -------3-----------3-----------------------------
b -----3---3-------3---3---------6-----------6-----
g -----------------------------5---5-------5---5---
d ---5-----------5-------5---6-------6---6-------6-
a -6---------5-6-----------5-----------5-----------
e -------------------------------------------------
To show from where I came

Break:

e -----------------------------------
b -----------------------------------
g -5-5-5-2-5-5-5-2-5-5-5-2-5-5-5-3-2-
d -5-5-5-2-5-5-5-2-5-5-5-2-5-5-5-3-2-
a -3-3-3-0-3-3-3-0-3-3-3-0-3-3-3-1-0-
e -----------------------------------

Prechorus:

e -1-1-1-1-1-1-1-1-3-3-3-3-3-----
b -3-3-3-3-3-3-3-3-3-3-3-3-3-----
g -2-2-2-2-2-2-2-2-0-0-0-0-0-----
d -0-0-0-0-0-0-0-0-0-0-0-0-0-3-2-
a -0-0-0-0-0-0-0-0-2-2-2-2-2-3-2-
e -x-x-x-x-x-x-x-x-3-3-3-3-3-1-0-
We don't talk about love

e -1-1-1-1-1-1-1-1-3-3-3-3-3-----
b -3-3-3-3-3-3-3-3-3-3-3-3-3-----
g -2-2-2-2-2-2-2-2-0-0-0-0-0-7-8-
d -0-0-0-0-0-0-0-0-0-0-0-0-0-x-x-
a -0-0-0-0-0-0-0-0-2-2-2-2-2-5-6-
e -x-x-x-x-x-x-x-x-3-3-3-3-3-----
We only wanna get drunk

e -0-0-0-0-0-0-0-0-0-0-0-0-------------
b -0-0-0-0-0-0-0-0-1-1-1-1-------------
g -0-0-0-0-0-0-0-0-2-2-2-2-4b5r4-2-0-2-
d -2-2-2-2-2-2-2-2-2-2-2-2-------------
a -2-2-2-2-2-2-2-2-0-0-0-0-------------
e -0-0-0-0-0-0-0-0---------------------
And we are not allowed to spend

e -1-1-1-0-1-1-1-0-1-1-1-0-1-1-1-0-
b -1-1-1-1-1-1-1-1-1-1-1-1-1-1-1-1-
g -3-3-3-3-3-3-3-3-3-3-3-3-3-3-3-3-
d -3-3-3-3-3-3-3-3-3-3-3-3-3-3-3-3-
a -x-x-x-x-x-x-x-x-x-x-x-x-x-x-x-x-
e -x-x-x-x-x-x-x-x-x-x-x-x-x-x-x-x-
As we are told that this is the end

Chorus:

e -0-0-0-0-0-0-0-----1-1-1-1-1-1-1-1-
b -1-1-1-1-1-1-1-----1-1-1-1-1-1-1-1-
g -2-2-2-2-2-2-2-----2-2-2-2-2-2-2-2-
d -2-2-2-2-2-2-2-----3-3-3-3-3-3-3-3-
a -0-0-0-0-0-0-0-----3-3-3-3-3-3-3-3-
e ---------------3-2-1-1-1-1-1-1-0-1-
A design for life

e -0-0-0-0-0-0-0-----1-1-1-1-1-1-1-1-
b -1-1-1-1-1-1-1-----1-1-1-1-1-1-1-1-
g -2-2-2-2-2-2-2-----2-2-2-2-2-2-2-2-
d -2-2-2-2-2-2-2-----3-3-3-3-3-3-3-3-
a -0-0-0-0-0-0-0-----3-3-3-3-3-3-3-3-
e ---------------3-2-1-1-1-1-1-1-0-1-
A design for life

e -0-0-0-0-0-0-0-----1-1-1-1-1-1-1-1-
b -1-1-1-1-1-1-1-----1-1-1-1-1-1-1-1-
g -2-2-2-2-2-2-2-----2-2-2-2-2-2-2-2-
d -2-2-2-2-2-2-2-----3-3-3-3-3-3-3-3-
a -0-0-0-0-0-0-0-----3-3-3-3-3-3-3-3-
e ---------------3-2-1-1-1-1-1-1-0-1-
A design for life

e -1-
b -1-
g -2-
d -3-
a -3-
e -1-
A design for

Break:
e ---------------------------
b -------0-----------0-------
g -----5---5-------5---5-----
d ---5-------5---5-------5---
a -3-----------3-----------3-
e ---------------------------
Life

e ---------------------------
b -------0-----------0-------
g -----5---5-------5---5-----
d ---5-------5---5-------5---
a -3-----------3-----------3-
e ---------------------------

Verse 2:

e -------------------------------------------------
b -------0-----------0-----------0-----------0-----
g -----5---5-------5---5-------5---5-------5---5---
d ---5-------5---5-------5---5-------5---5-------5-
a -3-----------3-----------3-----------3-----------
e -------------------------------------------------
I wish I had a bottle

e -------------------------------------------------
b -------0-----------0-----------0-----------0-----
g -----5---5-------5---5-------5---5-------5---5---
d ---3-------3---3-------3---3-------3---3-------3-
a -5-----------5-----------5-----------5-----------
e -------------------------------------------------
Right here in my dirty face

e -------------------------------------------------
b -------------------------------------------------
g -------4-----------4-----------4-----------4-----
d -----3---3-------3---3-------3---3-------3---3---
a ---5-------5---5-------5---5-------5---5-------5-
e -3-----------3-----------3-----------3-----------
To wear the scars


e -------3-----------3-----------------------------
b -----3---3-------3---3---------6-----------6-----
g -----------------------------5---5-------5---5---
d ---5-----------5-------5---6-------6---6-------6-
a -6---------5-6-----------5-----------5-----------
e -------------------------------------------------
To show from where I came

Break:

e -----------------------------------
b -----------------------------------
g -5-5-5-2-5-5-5-2-5-5-5-2-5-5-5-3-2-
d -5-5-5-2-5-5-5-2-5-5-5-2-5-5-5-3-2-
a -3-3-3-0-3-3-3-0-3-3-3-0-3-3-3-1-0-
e -----------------------------------

Prechorus:

e -1-1-1-1-1-1-1-1-3-3-3-3-3-----
b -3-3-3-3-3-3-3-3-3-3-3-3-3-----
g -2-2-2-2-2-2-2-2-0-0-0-0-0-----
d -0-0-0-0-0-0-0-0-0-0-0-0-0-3-2-
a -0-0-0-0-0-0-0-0-2-2-2-2-2-3-2-
e -x-x-x-x-x-x-x-x-3-3-3-3-3-1-0-
We don't talk about love

e -1-1-1-1-1-1-1-1-3-3-3-3-3-----
b -3-3-3-3-3-3-3-3-3-3-3-3-3-----
g -2-2-2-2-2-2-2-2-0-0-0-0-0-7-8-
d -0-0-0-0-0-0-0-0-0-0-0-0-0-x-x-
a -0-0-0-0-0-0-0-0-2-2-2-2-2-5-6-
e -x-x-x-x-x-x-x-x-3-3-3-3-3-----
We only wanna get drunk

e -0-0-0-0-0-0-0-0-0-0-0-0-------------
b -0-0-0-0-0-0-0-0-1-1-1-1-------------
g -0-0-0-0-0-0-0-0-2-2-2-2-4b5r4-2-0-2-
d -2-2-2-2-2-2-2-2-2-2-2-2-------------
a -2-2-2-2-2-2-2-2-0-0-0-0-------------
e -0-0-0-0-0-0-0-0---------------------
And we are not allowed to spend

e -1-1-1-0-1-1-1-0-1-1-1-0-1-1-1-0-
b -1-1-1-1-1-1-1-1-1-1-1-1-1-1-1-1-
g -3-3-3-3-3-3-3-3-3-3-3-3-3-3-3-3-
d -3-3-3-3-3-3-3-3-3-3-3-3-3-3-3-3-
a -x-x-x-x-x-x-x-x-x-x-x-x-x-x-x-x-
e -x-x-x-x-x-x-x-x-x-x-x-x-x-x-x-x-
As we are told that this is the end

Chorus:

e -0-0-0-0-0-0-0-----1-1-1-1-1-1-1-1-
b -1-1-1-1-1-1-1-----1-1-1-1-1-1-1-1-
g -2-2-2-2-2-2-2-----2-2-2-2-2-2-2-2-
d -2-2-2-2-2-2-2-----3-3-3-3-3-3-3-3-
a -0-0-0-0-0-0-0-----3-3-3-3-3-3-3-3-
e ---------------3-2-1-1-1-1-1-1-0-1-
A design for life

e -0-0-0-0-0-0-0-----1-1-1-1-1-1-1-1-
b -1-1-1-1-1-1-1-----1-1-1-1-1-1-1-1-
g -2-2-2-2-2-2-2-----2-2-2-2-2-2-2-2-
d -2-2-2-2-2-2-2-----3-3-3-3-3-3-3-3-
a -0-0-0-0-0-0-0-----3-3-3-3-3-3-3-3-
e ---------------3-2-1-1-1-1-1-1-0-1-
A design for life

e -0-0-0-0-0-0-0-----1-1-1-1-1-1-1-1-
b -1-1-1-1-1-1-1-----1-1-1-1-1-1-1-1-
g -2-2-2-2-2-2-2-----2-2-2-2-2-2-2-2-
d -2-2-2-2-2-2-2-----3-3-3-3-3-3-3-3-
a -0-0-0-0-0-0-0-----3-3-3-3-3-3-3-3-
e ---------------3-2-1-1-1-1-1-1-0-1-
A design for life

e -1-
b -1-
g -2-
d -3-
a -3-
e -1-
A design for

Break:
e ---------------------------
b -------0-----------0-------
g -----5---5-------5---5-----
d ---5-------5---5-------5---
a -3-----------3-----------3-
e ---------------------------
Life

e ---------------------------
b -------0-----------0-------
g -----5---5-------5---5-----
d ---5-------5---5-------5---
a -3-----------3-----------3-
e ---------------------------

e -------------------------------------------------
b -------0-----------0-----------0-----------0-----
g -----5---5-------5---5-------5---5-------5---5---
d ---3-------3---3-------3---3-------3---3-------3-
a -5-----------5-----------5-----------5-----------
e -------------------------------------------------

e -------------------------------------------------
b -------------------------------------------------
g -------4-----------4-----------4-----------4-----
d -----3---3-------3---3-------3---3-------3---3---
a ---5-------5---5-------5---5-------5---5-------5-
e -3-----------3-----------3-----------3-----------

e -------3-----------3-----------------------------
b -----3---3-------3---3---------6-----------6-----
g -----------------------------5---5-------5---5---
d ---5-----------5-------5---6-------6---6-------6-
a -6---------5-6-----------5-----------5-----------
e -------------------------------------------------

Break:

e -----------------------------------
b -----------------------------------
g -5-5-5-2-5-5-5-2-5-5-5-2-5-5-5-3-2-
d -5-5-5-2-5-5-5-2-5-5-5-2-5-5-5-3-2-
a -3-3-3-0-3-3-3-0-3-3-3-0-3-3-3-1-0-
e -----------------------------------

Prechorus:

e -1-1-1-1-1-1-1-1-3-3-3-3-3-----
b -3-3-3-3-3-3-3-3-3-3-3-3-3-----
g -2-2-2-2-2-2-2-2-0-0-0-0-0-----
d -0-0-0-0-0-0-0-0-0-0-0-0-0-3-2-
a -0-0-0-0-0-0-0-0-2-2-2-2-2-3-2-
e -x-x-x-x-x-x-x-x-3-3-3-3-3-1-0-
We don't talk about love

e -1-1-1-1-1-1-1-1-3-3-3-3-3-----
b -3-3-3-3-3-3-3-3-3-3-3-3-3-----
g -2-2-2-2-2-2-2-2-0-0-0-0-0-7-8-
d -0-0-0-0-0-0-0-0-0-0-0-0-0-x-x-
a -0-0-0-0-0-0-0-0-2-2-2-2-2-5-6-
e -x-x-x-x-x-x-x-x-3-3-3-3-3-----
We only wanna get drunk

e -0-0-0-0-0-0-0-0-0-0-0-0-------------
b -0-0-0-0-0-0-0-0-1-1-1-1-------------
g -0-0-0-0-0-0-0-0-2-2-2-2-4b5r4-2-0-2-
d -2-2-2-2-2-2-2-2-2-2-2-2-------------
a -2-2-2-2-2-2-2-2-0-0-0-0-------------
e -0-0-0-0-0-0-0-0---------------------
And we are not allowed to spend

e -1-1-1-0-1-1-1-0-1-1-1-0-1-1-1-0-
b -1-1-1-1-1-1-1-1-1-1-1-1-1-1-1-1-
g -3-3-3-3-3-3-3-3-3-3-3-3-3-3-3-3-
d -3-3-3-3-3-3-3-3-3-3-3-3-3-3-3-3-
a -x-x-x-x-x-x-x-x-x-x-x-x-x-x-x-x-
e -x-x-x-x-x-x-x-x-x-x-x-x-x-x-x-x-
As we are told that this is the end

Chorus:

e -0-0-0-0-0-0-0-----1-1-1-1-1-1-1-1-
b -1-1-1-1-1-1-1-----1-1-1-1-1-1-1-1-
g -2-2-2-2-2-2-2-----2-2-2-2-2-2-2-2-
d -2-2-2-2-2-2-2-----3-3-3-3-3-3-3-3-
a -0-0-0-0-0-0-0-----3-3-3-3-3-3-3-3-
e ---------------3-2-1-1-1-1-1-1-0-1-
A design for life

e -0-0-0-0-0-0-0-----1-1-1-1-1-1-1-1-
b -1-1-1-1-1-1-1-----1-1-1-1-1-1-1-1-
g -2-2-2-2-2-2-2-----2-2-2-2-2-2-2-2-
d -2-2-2-2-2-2-2-----3-3-3-3-3-3-3-3-
a -0-0-0-0-0-0-0-----3-3-3-3-3-3-3-3-
e ---------------3-2-1-1-1-1-1-1-0-1-
A design for life

e -0-0-0-0-0-0-0-----1-1-1-1-1-1-1-1-
b -1-1-1-1-1-1-1-----1-1-1-1-1-1-1-1-
g -2-2-2-2-2-2-2-----2-2-2-2-2-2-2-2-
d -2-2-2-2-2-2-2-----3-3-3-3-3-3-3-3-
a -0-0-0-0-0-0-0-----3-3-3-3-3-3-3-3-
e ---------------3-2-1-1-1-1-1-1-0-1-
A design for life

e -1-
b -1-
g -2-
d -3-
a -3-
e -1-
A design for


 
»
Tvoje obľúbené položky
Tvoje obľúbené položky
»
Najnovšie videá
Najnovšie videá

»
Tvoje obľúbené piesne
Tvoje obľúbené piesne
»
Najnavštevovanejšie piesne
Najnavštevovanejšie piesne
»
Nové albumy interpreta
Nové albumy interpreta



home | interpreti | register piesní | cd & dvd shop | pripomienky/nápady | kontakt | ochrana údajov | inzercia