Manic Street Preachers


piesne (206)

  texty (174)
  akordy (15)
  taby (15)
  preklady (17)


články (131)
Fotky (145)
diskusia
videá
diskografia
v obchode
odkazy
koncerty
sťahuj



pridaj vlastný článok

Manic Street Preachers:
Manic Street Preachers na Rock for People připomněli 90. léta - ceskenoviny.cz


Colours Of Ostrava:
TOP 7 festivalových headlinerů 2019: Manic Street Preachers na Rock for People
i The Cure na Colours of Ostrava
- ireport.cz


Manic Street Preachers:
Rock for People oznamuje další hvězdu, dorazí Manic Street Preachers - ireport.cz


Manic Street Preachers:
Manic Street Preachers - This Is My Truth Tell Me Yours - musicserver.cz


Manic Street Preachers:
Manics nabídli už šestý singl z nové desky - abradio.cz


Manic Street Preachers:
RECENZE: Sklizeň kapely Manic Street Preachers - novinky.cz


Manic Street Preachers:
Manic Street Preachers se nebojí podlehnout minulosti, natočili sympatickou a
zábavnou desku
- aktualne.cz


Manic Street Preachers:
Rockeři z devadesátých let se vracejí na scénu - denik.cz


Manic Street Preachers:
MANIC STREET PREACHERS míří do kin - spark-rockmagazine.cz


Manic Street Preachers:
Film o Manic Street Preachers v českých kinech - radiobeat.cz


 

Manic Street Preachers

Fanúšikov: 1



A B C Č D E F G H CH I J K L Ľ M N O P Q R S Š T U V W X Y Z Ž



ako:
Manic Street Preachers - Ocean Spray
Manic Street Preachers - Ocean Spray

tlač

edituj
Pesničku videlo 2277 návštevníkov.

Kvalita tabov : bez hodnotenia
Hodnotilo ľudí: 0 ohodnoť aj ty
Intro 

Some Spanish speaking then James comes in with:
e----------------------------------------------
B----------------------------------------------
D-9-9-x-9-9-9-x-9-9-9-x-9-9-9-7-7--------------
G-9-9-x-9-9-9-x-9-9-9-x-9-9-9-7-7--------------
A-7-7-x-7-7-7-x-7-7-7-x-7-7-7-5-5--------------
E----------------------------------------------

The verse comes in with a sole acoustic guitar

E A
e-----------------------------|---------------------------------
B-----------------------------|---------------------------------
D-9-9-x-9-9-9-x-9-9-9-x-9-9-9-|---------------------------------
G-9-9-x-9-9-9-x-9-9-9-x-9-9-9-|-7-7-x-7-7-7-x-7-7-7-x-7-7-7-----
A-7-7-x-7-7-7-x-7-7-7-x-7-7-7-|-7-7-x-7-7-7-x-7-7-7-x-7-7-7-----
E-----------------------------|-5-5-x-5-5-5-x-5-5-5-x-5-5-5-----
Its Easy to see.....

D G
e-----------------------------|---------------------------------
B-----------------------------|---------------------------------
D-7-7-x-7-7-7-x-7-7-7-x-7-7-7-|---------------------------------
G-7-7-x-7-7-7-x-7-7-7-x-7-7-7-|-5-5-X-5-5-5-X-5-5-5-X-5-5-5-----
A-5-5-x-5-5-5-x-5-5-5-x-5-5-5-|-5-5-X-5-5-5-X-5-5-5-X-5-5-5-----
E-----------------------------|-3-3-X-3-3-3-X-3-3-3-X-3-3-3-----
Play that twice before coming to the chorus

Chorus

When the chorus comes in there are two guitars
The secound is distorted and apargeates around the chords played by the acoustic
guitar.


Bm A5
e-----------------------------|------------------------------
B-----------------------------|------------------------------
D-----------------------------|------------------------------
G-9-9-x-9-9-9-x-9-9-9-x-9-9-9-|-7-7-x-7-7-7-x-7-7-7-x-7-7-7--
A-9-9-x-9-9-9-x-9-9-9-x-9-9-9-|-7-7-x-7-7-7-x-7-7-7-x-7-7-7--
E-7-7-x-7-7-7-x-7-7-7-x-7-7-7-|-5-5-X-5-5-5-X-5-5-5-X-5-5-5--
Ooooooooooooooh please stay...

D5 G
e-----------------------------|------------------------------
B-----------------------------|------------------------------
D-7-7-x-7-7-7-x-7-7-7-x-7-7-7-|------------------------------
G-7-7-x-7-7-7-x-7-7-7-x-7-7-7-|-5-5-X-5-5-5-X-5-5-5-X-5-5-5--
A-5-5-X-5-5-5-X-5-5-5-X-5-5-5-|-5-5-X-5-5-5-X-5-5-5-X-5-5-5--
E-----------------------------|-3-3-X-3-3-3-X-3-3-3-X-3-3-3--


The electric guitar apegeates around these chords

Bm A5 D5 G
e|-2-|-0-|-x-|-3-|
B|-3-|-0-|-3-|-3-|
D|-4-|-2-|-2-|-0-|
G|-4-|-2-|-0-|-0-|
A|-2-|-0-|-x-|-2-|
E|-x-|-x-|-x-|-3-|



After the chorus a sole electric guitar plays this

A5 F5 D5
e-----------------------|--------------------------|
B-----------------------|-------------7b7b7b7b7b7b-|
D-----------------------|-7-7-7-7-7-x--------------|
G-7-7-7-7-7-X-3-3-3-3-3-|-7-7-7-7-7-x--------------|
A-7-7-7-7-7-X-3-3-3-3-3-|-5-5-5-5-5-x--------------|
E-5-5-5-5-5-X-1-1-1-1-1-|--------------------------|

 
»
Tvoje obľúbené položky
Tvoje obľúbené položky
»
Najnovšie videá
Najnovšie videá

»
Tvoje obľúbené piesne
Tvoje obľúbené piesne
»
Najnavštevovanejšie piesne
Najnavštevovanejšie piesne
»
Nové albumy interpreta
Nové albumy interpreta



home | interpreti | register piesní | cd & dvd shop | pripomienky/nápady | kontakt | ochrana údajov | inzercia