Peter Bič Project

piesne (20)

  texty () / preklady ()
  akordy () / taby ()
  noty () / slideshow ()

články (0)
fotogaléria
diskusia
videá
diskografia
v obchode
odkazy
koncerty
sťahuj



 

Peter Bič Project

Fanúšikov: 0



A B C Č D E F G H CH I J K L Ľ M N O P Q R S Š T U V W X Y Z Ž



ako:
Peter Bič Project - Hey Now solo
Peter Bič Project - Hey Now solo

tlač

edituj
Rok vzniku: 2012
Pesničku videlo 590 návštevníkov.

Kvalita tabov : bez hodnotenia
Hodnotilo ľudí: 0 ohodnoť aj ty
Prispievateľ:

zoffcakm
  *** Autor textu: Peter Bič Project *** Autor hudby: Peter Bič Project
E-----------------------------------------------------

B--------18------------------------18-----------------

G--14-15-----17b-17-15-17b---14-15----17b-17-15-12----

D-----------------------------------------------------

A-----------------------------------------------------

E-----------------------------------------------------

2. časť

E-------17-----------17-18--17-18---------------------

B--s20-----18--18-20----------------------------------

G-----------------------------------------------------

D-----------------------------------------------------

A-----------------------------------------------------

E-----------------------------------------------------
s - slide
b - bend full step

 
»
Tvoje obľúbené položky
Tvoje obľúbené položky
»
Najnovšie videá
Najnovšie videá

»
Tvoje obľúbené piesne
Tvoje obľúbené piesne
»
Najnavštevovanejšie piesne
Najnavštevovanejšie piesne
Čoskoro - akordy a text

Skúšame sa nájsť - akordy a text

Nedívaj sa tak - akordy a text

Láva - akordy a text

Stoj - akordy a text

Stále ťa mám - akordy

All Those Places - text

Where Did You Go - text

Say It Loud - text

Tichá pieseň - akordy a text

Labyrint - akordy a text

So mnou sa hráš - akordy a text

Wanna Live - slideshow

Where Did You Go - text

Holiday - slideshow

Z výšky - akordy a text

Tichá pieseň - akordy a text

Thinking about you - akordy

Hey Now solo - taby

»
Nové albumy interpreta
Nové albumy interpreta



home | interpreti | register piesní | cd & dvd shop | pripomienky/nápady | kontakt | ochrana údajov | inzercia