Blind Guardian


piesne (244)

  texty (107)
  akordy (4)
  taby (88)
  preklady (49)


články (23)
Fotky (11)
diskusia
videá
diskografia
v obchode
odkazy
koncerty
sťahuj



pridaj vlastný článok

Blind Guardian:
BLIND GUARDIAN nás v novém singlu lákají do nebezpečných stínů - Němečtí metaloví giganti BLIND GUARDIAN na nás v horkých letních dnech vrhají dě... - spark


Blind Guardian:
BLIND GUARDIAN se topí v krvi elfů. Předprodej nového alba zahájen! - Powermetalové legendy se vrací a oznamují vydání svého jedenáctého alba „The Go... - spark


Blind Guardian:
Novinku BLIND GUARDIAN zdobí barevně nezvykle minimalistický obal - Němečtí BLIND GUARDIAN přicházejí se zásadními informacemi souvisejícími s jeji... - spark


Blind Guardian:
BLIND GUARDIAN vydávají singl s monumentálním refrénem - Strážce se začíná dávat do pohybu! Koncem loňského roku BLIND GUARDIAN zveřejnil... - spark


Blind Guardian:
BLIND GUARDIAN: nové album za rok, první singl už v prosinci - Na novou nahrávku německých powemetalových titánů si budeme muset počkat až do z... - spark


Blind Guardian:
Mini verze Wackenu se kvůli koronaviru ruší - V září měla proběhnout menší verze festivalu Wacken nazvaná Bullhead City festiva... - spark


Blind Guardian:
DEMONS & WIZARDS končí. Parťák Jona Schaffera odešel z kapely - Zpěvák BLIND GUARDIAN Hansi Kürsch opouští svůj dlouhodobý vedlejší projekt DEMO... - spark


Blind Guardian:
O kapku veselejší vánoční song od BLIND GUARDIAN - Jde ale trošku o santovskou habaďůru protože písničku si němečtí power mágové... - spark


Blind Guardian:
V očích jasných se vše zrcadlí s BLIND GUARDIAN - Němečtí powermetaloví veteráni vydají 11. prosince speciální release své studiov... - spark


Blind Guardian:
BLIND GUARDIAN připomněli nový song a album - ... - spark


 

Blind Guardian

Fanúšikov: 0



A B C Č D E F G H CH I J K L Ľ M N O P Q R S Š T U V W X Y Z Ž



ako:
Blind Guardian - The Bards Song [2. Gitara]
Blind Guardian - The Bards Song [2. Gitara]

tlač

edituj
Pesničku videlo 4508 návštevníkov.

Kvalita tabov : bez hodnotenia
Hodnotilo ľudí: 0 ohodnoť aj ty


The bard's song

Guitar 2

D#||------|------|------|------|------|------|------|------|--8----10--8--7----|
A#||------|------|------|------|------|------|------|------|-------------------|
F#||------|------|------|------|------|------|------|------|-------------------|
C#||------|------|------|------|------|------|------|------|-------------------|
G#||------|------|------|------|------|------|------|------|-------------------|
D#||------|------|------|------|------|------|------|------|-------------------|



--7---------------|-----------7--8----|--7----8----10----|--8----10--8--7----|
-------10----8----|--8----10----------|------------------|-------------------|
------------------|-------------------|------------------|-------------------|
------------------|-------------------|------------------|-------------------|
------------------|-------------------|------------------|-------------------|
------------------|-------------------|------------------|-------------------|



--7---------------|-----------7--8/---|--12----------------|------------------|
-------10----8----|--8----10----------|--------------------|------------------|
------------------|-------------------|--------------------|------------------|
------------------|-------------------|--------------------|------------------|
------------------|-------------------|--------------------|------------------|
------------------|-------------------|--------------------|------------------|



------------------|------------------|------------------|------------------|
------------------|------------------|------------------|------------------|
------------------|------------------|------------------|------------------|
------------------|------------------|------------------|------------------|
------------------|------------------|------------------|------------------|
------------------|------------------|------------------|------------------|



------------------|------------------|------------------|------------------|
------------------|------------------|------------------|------------------|
------------------|------------------|------------------|------------------|
------------------|------------------|------------------|------------------|
------------------|------------------|------------------|------------------|
------------------|------------------|------------------|------------------|



--8----------------|--7------8------10----|--7------------5h-7--|
-------------------|----------------------|---------------------|
-------------------|----------------------|---------------------|
-------------------|----------------------|---------------------|
-------------------|----------------------|---------------------|
-------------------|----------------------|---------------------|



--8---------------------|--8--------------------|-----------------------|
-------8h-10--10--------|---------10--------8-8-|--10------8------10----|
------------------------|-----------------------|-----------------------|
------------------------|-----------------------|-----------------------|
------------------------|-----------------------|-----------------------|
------------------------|-----------------------|-----------------------|



--7--------------------|-------------------|------------------|
---------10------5--3--|--3----------------|------------------|
-----------------------|-------------------|------------------|
-----------------------|-------------------|------------------|
-----------------------|-------------------|------------------|
-----------------------|-------------------|------------------|



------------------|------------------|------------------|--5---------5----|
------------------|------------------|------------------|-------8---------|
------------------|------------------|------------------|-----------------|
------------------|------------------|------------------|-----------------|
------------------|------------------|------------------|-----------------|
------------------|------------------|------------------|-----------------|



--8---------8----|--------12--10----|--12--------10----|--13------12--10----|
-------8---------|------------------|------------------|--------------------|
-----------------|------------------|------------------|--------------------|
-----------------|------------------|------------------|--------------------|
-----------------|------------------|------------------|--------------------|
-----------------|------------------|------------------|--------------------|



--12--------10----|--13------12--10----|--------------|--15--------15----|
------------------|--------------------|--------------|------------------|
------------------|--------------------|--------------|------------------|
------------------|--------------------|--------------|------------------|
------------------|--------------------|--------------|------------------|
------------------|--------------------|--------------|------------------|



--------------------15--|--17----15--------------|------------------|
--15----15--17--18------|------------18--17--15--|--18--------18----|
------------------------|------------------------|------------------|
------------------------|------------------------|------------------|
------------------------|------------------------|------------------|
------------------------|------------------------|------------------|



----------------|--5---------5----|--8---------8----|--------12--10----|
--15------------|-------8---------|-------8---------|------------------|
----------------|-----------------|-----------------|------------------|
----------------|-----------------|-----------------|------------------|
----------------|-----------------|-----------------|------------------|
----------------|-----------------|-----------------|------------------|



--12--------10----|--13------12--10----|--12--------10----|--13------12--10----|
------------------|--------------------|------------------|--------------------|
------------------|--------------------|------------------|--------------------|
------------------|--------------------|------------------|--------------------|
------------------|--------------------|------------------|--------------------|
------------------|--------------------|------------------|--------------------|



-------------------|--------------|------------------|------------------|
--12---------------|--------------|------------------|------------------|
--------10---------|--------------|------------------|------------------|
--------------9----|--------------|------------------|------------------|
-------------------|--------------|------------------|------------------|
-------------------|--------------|------------------|------------------|



---------------------------|-------------------------|-----------------------|
---------------------------|-------------------------|-----------------------|
--5h4----------------------|-------------------------|-----------------------|
------7----5--7h9h7/5------|-------------------------|-----------0-----------|
----------------------7----|--8------5--5h7h5/3------|--0--2--3-----7--------|
---------------------------|--------------------5----|-----------------------|



--8h7---------------------|--------------------------|-----------------------|
------10----8--10---------|--------------------------|-----------------------|
---------------------9----|--10------7--7h9h7/5------|-----------------------|
--------------------------|---------------------7----|-----------0-----------|
--------------------------|--------------------------|--0--2--3-----7--------|
--------------------------|--------------------------|-----------------------|



----------------------|-----------------------|----------------------|
----------------------|-----------------------|----------------------|
----------------------|--9--------------------|----------------------|
--7------9------10----|---------10------------|-----------------7----|
----------------------|-----------------10----|--8------10-----------|
----------------------|-----------------------|----------------------|



---------------------------------|---------------------|
------------------5--------------|---------------------|
---------------------7--5h7h5-4--|--5------7------9----|
---------------------------------|---------------------|
--10-10-10-----------------------|---------------------|
---------------------------------|---------------------|



-----------------------------|------------------------|--------------------|
-----------------------------|------------------10----|--------------------|
--7------12----10--9h10h9----|--10------12------------|--12----------------|
--------------------------12-|------------------------|--------------------|
-----------------------------|------------------------|--------------------|
-----------------------------|------------------------|--------------------|



----------|----------|----------|----------|----------|----------|----------|
----------|----------|----------|----------|----------|----------|----------|
----------|----------|----------|----------|----------|----------|----------|
----------|----------|----------|----------|----------|----------|----------|
----------|----------|----------|----------|----------|----------|----------|
----------|----------|----------|----------|----------|----------|----------|



----------|--8----------------|--10------8------7----|------------------5--|
----------|-------------------|----------------------|--8------------8-----|
----------|-------------------|----------------------|---------------------|
----------|-------------------|----------------------|---------------------|
----------|-------------------|----------------------|---------------------|
----------|-------------------|----------------------|---------------------|



--7--8--7-----5--5------|---------5------7----|--8------7------5----|
-----------8------------|--8------------------|---------------------|
------------------------|---------------------|---------------------|
------------------------|---------------------|---------------------|
------------------------|---------------------|---------------------|
------------------------|---------------------|---------------------|



---------------------|---------------------|----------|----------|
--8------6------5----|--6--5--3------------|----------|----------|
---------------------|---------------------|----------|----------|
---------------------|---------------------|----------|----------|
---------------------|---------------------|----------|----------|
---------------------|---------------------|----------|----------|



--5--------5----|--8--------8----|--13------12--10----|--12--------10----|
----------------|----------------|--------------------|------------------|
----------------|----------------|--------------------|------------------|
----------------|----------------|--------------------|------------------|
----------------|----------------|--------------------|------------------|
----------------|----------------|--------------------|------------------|



--13------12--10----|--12--------10----|--13------12--10----|--17--------------|
--------------------|------------------|--------------------|------------18----|
--------------------|------------------|--------------------|------------------|
--------------------|------------------|--------------------|------------------|
--------------------|------------------|--------------------|------------------|
--------------------|------------------|--------------------|------------------|



--15----------15----|------------------------|--15--17--15--------------|
--------18----------|--15--------15--17--18--|--------------18--17--15--|
--------------------|--------17--------------|--------------------------|
--------------------|------------------------|--------------------------|
--------------------|------------------------|--------------------------|
--------------------|------------------------|--------------------------|



------------------|--17------------|--5--------5----|--8--------8----|
--18--------18----|--18------------|----------------|----------------|
------------------|--19------------|----------------|----------------|
------------------|----------------|----------------|----------------|
------------------|----------------|----------------|----------------|
------------------|----------------|----------------|----------------|



--13------12--10----|--12--------10----|--13------12--10----|--12--------10----|
--------------------|------------------|--------------------|------------------|
--------------------|------------------|--------------------|------------------|
--------------------|------------------|--------------------|------------------|
--------------------|------------------|--------------------|------------------|
--------------------|------------------|--------------------|------------------|



--13------12--10----|--17--------------|--15----------15----|
--------------------|------------18----|--------18----------|
--------------------|------------------|--------------------|
--------------------|------------------|--------------------|
--------------------|------------------|--------------------|
--------------------|------------------|--------------------|



------------------------|--15--17--15--------------|------------------|
--15--------15--17--18--|--------------18--17--15--|--18--------18----|
--------17--------------|--------------------------|------------------|
------------------------|--------------------------|------------------|
------------------------|--------------------------|------------------|
------------------------|--------------------------|------------------|



--17------------|----------|----------|----------|----------|----------|
--18------------|----------|----------|----------|----------|----------|
--19------------|----------|----------|----------|----------|----------|
----------------|----------|----------|----------|----------|----------|
----------------|----------|----------|----------|----------|----------|
----------------|----------|----------|----------|----------|----------|



----------|----------|----------|----------|----------|----------|----------|
----------|----------|----------|----------|----------|----------|----------|
----------|----------|----------|----------|----------|----------|----------|
----------|----------|----------|----------|----------|----------|----------|
----------|----------|----------|----------|----------|----------|----------|
----------|----------|----------|----------|----------|----------|----------|



----------|----------|----------|----------|----------|----------|----------|
----------|----------|----------|----------|----------|----------|----------|
----------|----------|----------|----------|----------|----------|----------|
----------|----------|----------|----------|----------|----------|----------|
----------|----------|----------|----------|----------|----------|----------|
----------|----------|----------|----------|----------|----------|----------|



----------|----------|----------|----------|----------|----------|----------|
----------|----------|----------|----------|----------|----------|----------|
----------|----------|----------|----------|----------|----------|----------|
----------|----------|----------|----------|----------|----------|----------|
----------|----------|----------|----------|----------|----------|----------|
----------|----------|----------|----------|----------|----------|----------|



----------|----------||
----------|----------||
----------|----------||
----------|----------||
----------|----------||
----------|----------||




 
»
Tvoje obľúbené položky
Tvoje obľúbené položky
»
Najnovšie videá
Najnovšie videá

»
Tvoje obľúbené piesne
Tvoje obľúbené piesne
»
Najnavštevovanejšie piesne
Najnavštevovanejšie piesne
»
Nové albumy interpreta
Nové albumy interpreta



home | interpreti | register piesní | cd & dvd shop | pripomienky/nápady | kontakt | ochrana údajov | inzercia