Running Wild


piesne (283)

  texty (147)
  akordy (1)
  taby (3)
  preklady (12)


články (6)
Fotky (5)
diskusia
videá
diskografia
v obchode
odkazy
koncerty
sťahuj



pridaj vlastný článok

Running Wild:
RUNNING WILD ohlašují na léto nové album - Duchovní otec RUNNING WILD Rolf Kasparek alias Rock’n’Rolf informoval na sociálníc... - spark


Running Wild:
RUNNING WILD chystajú nové EP aj album - metalirium.com


Carcass:
Pondelková záplava noviniek: Carcass, Running wild, Gothoom, Soilwork a
ďalší
- valhalla.sk


Running Wild:
Nové EP: RUNNING WILD na Mikuláše zkříží meče - spark-rockmagazine.cz


Running Wild:
RUNNING WILD chystají nové album - metalopolis.net


Running Wild:
Pod pirátskou vlajkou Running Wild - rockmag.cz


Abigor:
13 metalových alb, z nichž se Tolkien v hrobě neobrací - metalopolis.net


 

Running Wild

Fanúšikov: 0



A B C Č D E F G H CH I J K L Ľ M N O P Q R S Š T U V W X Y Z Ž



ako:
Running Wild - Calico Jack : Intro Acoustic Guitar
Running Wild - Calico Jack : Intro Acoustic Guitar

tlač

edituj
Pesničku videlo 2955 návštevníkov.

Kvalita tabov :
Hodnotilo ľudí: 1 ohodnoť aj ty
  *** Autor textu: MAKOVEC *** Autor hudby: RUNNING WILD

RUNNING WILD - Calico Jack : INTRO Acoustic Guitar

INTRO:

/--3--2--3--5--3--2-3-2-0-/--2--0-2------2----------/
/-------------------------/---------3--5------------/
/-------------------------/-------------------------/
/-------------------------/-------------------------/
/-------------------------/--5----------------------/
/--0----------------------/-------------------------/

/--0--2-3-2--0---/--0--2-0-----0--2-----/
/----------------/----------4-----------/
/----------------/----------------------/
/----------------/----------------------/
/--3-------------/--0-------2-----------/
/----------------/-------------3--2-----/

/--3--2--0--2--3--5--2-3-2-0----/--2--3-0-2----0-2-----/
/-------------------------------/------------3-----3---/
/-------------------------------/----------------------/
/-------------------------------/----------------------/
/-------------------------------/--5-------------------/
/--0----------------------------/----------------------/

/--2--3-5-3--2-0-------/--0---2---0---0---/--------12------------/
/----------------4-0---/----0---0---0-----/------12--------------/
/----------------------/------------------/----12----------------/
/----------------------/------------------/----------------------/
/--0-------------------/------------------/----------------------/
/----------------------/------------------/----------------------/




 
»
Tvoje obľúbené položky
Tvoje obľúbené položky
»
Najnovšie videá
Najnovšie videá

»
Tvoje obľúbené piesne
Tvoje obľúbené piesne
»
Najnavštevovanejšie piesne
Najnavštevovanejšie piesne
»
Nové albumy interpreta
Nové albumy interpreta



home | interpreti | register piesní | cd & dvd shop | pripomienky/nápady | kontakt | ochrana údajov | inzercia