Iron Maiden


piesne (580)

  texty (180)
  akordy (35)
  taby (159)
  preklady (139)


články (246)
Fotky (42)
diskusia
videá
diskografia
v obchode
odkazy
koncerty
sťahuj



pridaj vlastný článok

Iron Maiden:
Biff Byford: „Naše stará alba jsou stejně dobrá jako alba IRON MAIDEN.“ - Zpěvák Biff Byford při příležitosti vydání jejich reedic srovnal stará alba SAXO... - spark


Iron Maiden:
Iron Maiden a Marvel stvořili speciální kolekci reklamních předmětů - Jste fanoušci komiksů a zároveň příznivci heavy metalu a rádi byste před ostatní... - musicserver.cz


Bruce Dickinson:
Přesně před 40 lety vystoupil Bruce Dickinson poprvé s IRON MAIDEN - Jen před pár dny, konkrétně 26. října, uplynulo 40 let od debutového koncertu Bruc... - spark


Steve Harris:
British Lion Steva Harrise z Iron Maiden přijedou v červnu do Prahy - Britská kapela British Lion ve složení Steve Harris (basová kytara), Richard Taylor (... - musicserver.cz


Steve Harris:
Steve Harris z Iron Maiden dorazí do Prahy, představí svůj sólový projekt - Baskytarista Steve Harris z Iron Maiden přijede se svým sólovým projektem British Lio... - IREPORT


Iron Maiden:
Autobiografie zpěváka IRON MAIDEN táhne - Kniha popisující strhující příběh Bruce Dickinsona je plná historek podaných nez... - spark


Bruce Dickinson:
Vydání nového alba IRON MAIDEN podléhalo nejpřísnějším bezpečnostním
opatřením
- Sedmnácté studiové album IRON MAIDEN „nevznikalo tak dlouho“, jak prohlásil v jed... - spark


Iron Maiden:
Basák IRON MAIDEN vypouští nový klip svého vedlejšáku BRITISH LION - BRITISH LION, vedlejší projekt baskytaristy a zakladatele IRON MAIDEN Stevea Harrise, v... - spark


Iron Maiden:
Železná panna v nejlepších letech - V ostří samurajského meče se leskne noblesa, s jakou IRON MAIDEN proplouvají nekone... - spark


Imagine Dragons:
Nová alba: Iron Maiden, David Stypka, Imagine Dragons i Lady Gaga - Hned první zářijový termín emisí nových alb přinesl sbírku, která je velmi při... - novinky.cz


 

Iron Maiden

Fanúšikov: 1



A B C Č D E F G H CH I J K L Ľ M N O P Q R S Š T U V W X Y Z Ž



ako:
Iron Maiden - Blood Brothers
Iron Maiden - Blood Brothers

tlač

edituj
Pesničku videlo 6934 návštevníkov.

Kvalita tabov : bez hodnotenia
Hodnotilo ľudí: 0 ohodnoť aj ty
Prispievateľ:
www.radex.zde.c

Intro:
e:|----------|-------|----------|-------||
B:|----------|-------|----------|-------||
G:|----------|-------|----------|-------||
D:|----------|-------|----5---5-|---7---||
A:|----2---2-|---5---|-3----3---|-5---5-||
E:|-0----0---|-3---3-|----------|-------||

bass:

G:|----------|----------|--------------|----------||
D:|----------|----------|--------------|----------||
A:|----9---9-|----12----|-----17----17-|----19----||
E:|-7----7---|-10----10-|-15-----15----|-17----17-||

G:|----------|----------|----------|-------||
D:|----------|----------|----------|-------||
A:|----9---9-|----12----|----5---5-|---7---||
E:|-7----7---|-10----10-|-3----3---|-5---5-||


Riff1
e:|---------------------------------------|---------------------------------------|
B:|---------------------------------------|---------------------------------------|
G:|----12h14-17--16-14-16--14-12-14-12-11-|----12h14-17--16-14-16--14-12-11-12-11-|
D:|-14------------------------------------|-14------------------------------------|
A:|---------------------------------------|---------------------------------------|
E:|---------------------------------------|---------------------------------------|


Riff2A
E5l G5 C5 D5

Refr. We're Blood Brothers....
E5h C5 G5 D5

Riff2B
E5l G5 C5 C5

Riff3 (after first Solo)
e:|--------------|-------------|---------------|
B:|--------------|-------------|---------------|
G:|-----16-14-16-|-17-16-14-12-|---------------|
D:|-14-----------|-------------|--14-pull down-|
A:|--------------|-------------|---------------|
E:|--------------|-------------|---------------|

Riff4
E5l E5l D5 G5

Riff5
C5 D5 C5 D5 E5h E5h E5h E5h

E5l E5h
A:|-2---|-9-|
E:|-0---|-7-|

Riff6
e:|--------------------------------------------------------------|--------------------------------|
B:|--------------------------------------------------------------|--------------------------------|
G:|----------------14-16-14-16--16h19-16-14-14h16-14-12-14-14h16-|-14-16-16h19--16-14-16-14-12-14-|
D:|-14h16-17-16-17-----------------------------------------------|--------------------------------|
A:|--------------------------------------------------------------|--------------------------------|
E:|--------------------------------------------------------------|--------------------------------|

e:|------------------------------|---------------------------|
B:|------------------------------|---------------------------|
G:|-12-14-14h16-14-12-14-12-11-9-|-9-11-11h12-11-9-11-9-7-9--|
D:|------------------------------|--------------------------9|
A:|------------------------------|---------------------------|
E:|------------------------------|---------------------------|

e:|--------------------------|----------------------------|
B:|--------------------------|----------------------------|
G:|-9-11-11h12-11-9-11-9-7-9-|-9-11-11h12-11-9-7-9-9h11-9-|
D:|--------------------------|----------------------------|
A:|--------------------------|----------------------------|
E:|--------------------------|----------------------------|

second Solo (first part)

e:|------------------------------------|-19~--19-17-15-14-15-14----|-----------------------------------|
B:|-17~--17-19-19h20-19-17-15-17-19-17-|------------------------15-|-17-19-19h20-19-17-15-17-19-17-17~-|
G:|------------------------------------|---------------------------|-----------------------------------|
D:|------------------------------------|---------------------------|-----------------------------------|
A:|------------------------------------|---------------------------|-----------------------------------|
E:|------------------------------------|---------------------------|-----------------------------------|

 
»
Tvoje obľúbené položky
Tvoje obľúbené položky
»
Najnovšie videá
Najnovšie videá

»
Tvoje obľúbené piesne
Tvoje obľúbené piesne
»
Najnavštevovanejšie piesne
Najnavštevovanejšie piesne
»
Nové albumy interpreta
Nové albumy interpreta



home | interpreti | register piesní | cd & dvd shop | pripomienky/nápady | kontakt | ochrana údajov | inzercia