Backyard Babies


piesne (6)

  texty (2)
  akordy (1)
  taby (3)
  preklady (0)


články (2)
Fotky (15)
diskusia
videá
diskografia
v obchode
odkazy
koncerty
sťahuj



pridaj vlastný článok

Backyard Babies:
Backyard Babies zaútočí na Prahu - musicserver.cz


Backyard Babies:
Geniové prozaičnosti, mistři prozíravé triviality - musicserver.cz


 

Backyard Babies

Fanúšikov: 0



A B C Č D E F G H CH I J K L Ľ M N O P Q R S Š T U V W X Y Z Ž



ako:
Backyard Babies - Ghetto You
Backyard Babies - Ghetto You

tlač

edituj
Pesničku videlo 3455 návštevníkov.

Kvalita tabov : bez hodnotenia
Hodnotilo ľudí: 0 ohodnoť aj ty
  *** Autor textu: Backyard babies *** Autor hudby: Backyard babies
e|------------------------------------------------|
B|------------------------------------------------|
G|------------------------------------------------|
D|--------------------------7-7--6-6--4-4-4-4-4-4-|
A|-4-4--4-4--4-4--4-4--4----5-5--4-4--2-2-2-2-2-2-| (x3)
E|-2-2--0-0--2-2--0-0--2--------------------------|

Then they play same thing but with just lots of distortion.
e|------------------------------------------------|
B|------------------------------------------------|
G|------------------------------------------------|
D|--------------------------7-7--6-6--4-4-4-4-4-4-|
A|-4-4--4-4--4-4--4-4--4----5-5--4-4--2-2-2-2-2-2-| (x2)
E|-2-2--0-0--2-2--0-0--2--------------------------|

Then they play:
e|--------------2-2-2-2---------------------------|
B|--------------2-2-2-2---------------------------|
G|------------------------------------------------|
D|------------------------------------------------|
A|-4-4--4-4-4------------4-4--4-4--4--------------|
E|-2-2--0-0-2------------2-2--0-0--2--------------|

Haven't figure out the song yet, but I'll try to do it some day.


 
»
Tvoje obľúbené položky
Tvoje obľúbené položky
»
Najnovšie videá
Najnovšie videá

»
Tvoje obľúbené piesne
Tvoje obľúbené piesne
»
Najnavštevovanejšie piesne
Najnavštevovanejšie piesne
»
Nové albumy interpreta
Nové albumy interpreta



home | interpreti | register piesní | cd & dvd shop | pripomienky/nápady | kontakt | ochrana údajov | inzercia