Blue Effect


piesne (20)

  texty (10)
  akordy (6)
  taby (9)
  preklady (0)


články (114)
Fotky (17)
diskusia
videá
diskografia
v obchode
odkazy
koncerty
sťahuj



pridaj vlastný článok

Blue Effect:
Vladimír Mišík vydá v září nové album s názvem Noční obraz - Praha - Zpěvák, hudebník a zakládající člen kapel Blue Effect a Etc... Vladim... - ceskenoviny.cz


Blue Effect:
Vladimír Mišík kvůli dlouhodobým zdravotním problémům končí s
koncertováním
- Zpěvák, hudebník a zakládající člen kapel Blue Effect a Etc... Vladimír Mišík n... - idnes.cz


Blue Effect:
Omlouvám se, už nemohu. Vladimír Mišík oznámil, že končí s
koncertováním
- Zpěvák, hudebník a zakládající člen kapel Blue Effect a Etc... Vladimír Mišík... - novinky.cz


Blue Effect:
Honza Křížek mění sestavu a chystá druhou sólovku - Honza Křížek využil nucenou koncertní pauzu k přemýšlení. Výsledkem je, že zp... - musicserver.cz


Abraxas:
Vychádza Art Rock Line 1971–1985. Šiesty diel populárnej Line edície - Vychádza Art Rock Line 1971–1985. Šiesty diel populárnej Line edície 04.02.2021 ... - zoznam.sk


Blue Effect:
TOP 10 instrumentálních písní. Pššššt! Když nezpívají Pink Floyd, Led
Zeppelin, Blue Effect, Mr Oizo a další
- Česká republika už třetí týden připomíná Půlnoční království, zpěv na veř... - IREPORT


Blue Effect:
Brno uctí rockovou legendu: Oldřichovi Veselému (†70) postaví pomník ve
skupině čestných hrobů
- Proslul jako skladatel, zpěvák a klávesista ve skupinách Synkopy 61 a Blue Effect. B... - blesk.cz


Blue Effect:
Členové Blue Effectu Radima Hladíka oživí s orchestrem a hosty kultovní
Novou Syntézu
- ČLENOVÉ BLUE EFFECTU RADIMA HLADÍKA OŽIVÍ S HOSTY KULTOVNÍ NOVOU SYNTÉZU. DORAZÍ ... - rockandpop.cz


Blue Effect:
Rodina kytaristy Hladíka pokřtí předělávku alba Nová syntéza - Praha - Křest předělávky desek Nová syntéza a Nová syntéza 2 rockové skupiny... - ceskenoviny.cz


Blue Effect:
V reedici vyšel komplet Nová syntéza kapely Blue Effect - 16 března 2020 Milan Slezák Žádné komentáře Novinky V reedici vyšel komplet N... - rockandpop.cz


 

Blue Effect

Fanúšikov: 0



A B C Č D E F G H CH I J K L Ľ M N O P Q R S Š T U V W X Y Z Ž



ako:
Blue Effect - Slunečný hrob - Ukulele
Blue Effect - Slunečný hrob - Ukulele

tlač

edituj
Rok vzniku: 2018
Pesničku videlo 4025 návštevníkov.

Kvalita tabov : bez hodnotenia
Hodnotilo ľudí: 0 ohodnoť aj ty
Prispievateľ:
Klenot
  *** Autor textu: J. Smetana *** Autor hudby: Xavier Baumaxa
Standartní ladění: A E C G


Zdá se mi...

||----2-----------4----|----6-------4-----||

||--4---4-------5--5--|---7--7----5--5---||

||4-----------6--------|-8-------6--------||

||---------------------|--------------------||

Bridge na refrén (brnkat na všechny struny):
|-2------------------|-5------------------|

|-0------------------|-0------------------|

|-4------------------|-4------------------|

|-1------------------|-1-------------------|

Ref:

Suchá hlína tady

|-4---4-------4----6----|--0-------6----4-------|

|-4---4-------4----6----|--0-------4----2-------|

|-4---4-------4----6----|--1---------------------|

|------------------------|--2-------4-----2------|



|-4---4-------4----6----|--0-------6----4-------|

|-2---2-------2----4----|--0-------4----2-------|

|------------------------|--1---------------------|

|-2---2-------2----4----|--2-------4-----2------|


Já na ní poklekám


|-6---------------------|--4--------------------|-6---------------------|

|-4---------------------|--2--------------------|-4---------------------|

|------------------------|-----------------------|-----------------------|

|-4---------------------|--2--------------------|-4---------------------|


A dokola...



 
»
Tvoje obľúbené položky
Tvoje obľúbené položky
»
Najnovšie videá
Najnovšie videá

»
Tvoje obľúbené piesne
Tvoje obľúbené piesne
»
Najnavštevovanejšie piesne
Najnavštevovanejšie piesne
»
Nové albumy interpreta
Nové albumy interpreta



home | interpreti | register piesní | cd & dvd shop | pripomienky/nápady | kontakt | ochrana údajov | inzercia