Blue Effect


piesne (20)

  texty (10)
  akordy (6)
  taby (9)
  preklady (0)


články (114)
Fotky (17)
diskusia
videá
diskografia
v obchode
odkazy
koncerty
sťahuj



pridaj vlastný článok

Blue Effect:
Vladimír Mišík vydá v září nové album s názvem Noční obraz - Praha - Zpěvák, hudebník a zakládající člen kapel Blue Effect a Etc... Vladim... - ceskenoviny.cz


Blue Effect:
Vladimír Mišík kvůli dlouhodobým zdravotním problémům končí s
koncertováním
- Zpěvák, hudebník a zakládající člen kapel Blue Effect a Etc... Vladimír Mišík n... - idnes.cz


Blue Effect:
Omlouvám se, už nemohu. Vladimír Mišík oznámil, že končí s
koncertováním
- Zpěvák, hudebník a zakládající člen kapel Blue Effect a Etc... Vladimír Mišík... - novinky.cz


Blue Effect:
Honza Křížek mění sestavu a chystá druhou sólovku - Honza Křížek využil nucenou koncertní pauzu k přemýšlení. Výsledkem je, že zp... - musicserver.cz


Abraxas:
Vychádza Art Rock Line 1971–1985. Šiesty diel populárnej Line edície - Vychádza Art Rock Line 1971–1985. Šiesty diel populárnej Line edície 04.02.2021 ... - zoznam.sk


Blue Effect:
TOP 10 instrumentálních písní. Pššššt! Když nezpívají Pink Floyd, Led
Zeppelin, Blue Effect, Mr Oizo a další
- Česká republika už třetí týden připomíná Půlnoční království, zpěv na veř... - IREPORT


Blue Effect:
Brno uctí rockovou legendu: Oldřichovi Veselému (†70) postaví pomník ve
skupině čestných hrobů
- Proslul jako skladatel, zpěvák a klávesista ve skupinách Synkopy 61 a Blue Effect. B... - blesk.cz


Blue Effect:
Členové Blue Effectu Radima Hladíka oživí s orchestrem a hosty kultovní
Novou Syntézu
- ČLENOVÉ BLUE EFFECTU RADIMA HLADÍKA OŽIVÍ S HOSTY KULTOVNÍ NOVOU SYNTÉZU. DORAZÍ ... - rockandpop.cz


Blue Effect:
Rodina kytaristy Hladíka pokřtí předělávku alba Nová syntéza - Praha - Křest předělávky desek Nová syntéza a Nová syntéza 2 rockové skupiny... - ceskenoviny.cz


Blue Effect:
V reedici vyšel komplet Nová syntéza kapely Blue Effect - 16 března 2020 Milan Slezák Žádné komentáře Novinky V reedici vyšel komplet N... - rockandpop.cz


 

Blue Effect

Fanúšikov: 0



A B C Č D E F G H CH I J K L Ľ M N O P Q R S Š T U V W X Y Z Ž



ako:
Blue Effect - Sluneční hrob - doprovod i sólo
Blue Effect - Sluneční hrob - doprovod i sólo

tlač

edituj
Pesničku videlo 43421 návštevníkov.

Kvalita tabov :
Hodnotilo ľudí: 2 ohodnoť aj ty
  *** Autor textu: J. Smetana *** Autor hudby: V. Mišík


Intro
Q=84
E F#m7 E/G# F#m7
4/4
Gtr I
||------0-------0---|-----0-------0----||
||o-----------------|-----------------o||
||----1-------2-----|---4-------2------||
||--2-----2-4-----4-|-6-----6-4-----4--||
||o-----------------|-----------------o||
||------------------|------------------||


E F#m7 E/G# F#m7 E F#m7
Gtr II
|-------------------|---------------------|-----------------------|
|-------------------|---------------------|-----------------------|
|-------------------|---------------------|-----4---4-4s6---6s9---|
|-------------------|---------------2-4-2-|-2s6-------------------|
|-------------------|---2-(2)---2s4-------|-----------------------|
|-0-----(0)-2---0-2-|-4-------------------|-----------------------|
|
| Gtr I
|-----0---------0---|------0----------0---|-------0---------0-----|
|-------------------|---------------------|-----------------------|
|---1---------2-----|---4-----------2-----|-----1---------2-------|
|-2------2--4-----4-|-6-------6---4-----4-|---2-----2-4---------4-|
|-------------------|---------------------|-----------------------|
|-------------------|---------------------|-----------------------|


Sloka 1, 2, 3
$
E/G# F#m7 E F#m7
|------------------------------||-------------------|
|---------------------------14-||o-17---------------|
|-9s11---11s13---13s16---16----||-------------------|
|------------------------------||-------------------|
|------------------------------||o------------------|
|------------------------------||-------------------|
|
| Gtr I
|---------0---------------0----||-------0-------0---|
|------------------------------||o------------------|
|------4---------------2-------||-----1-------2-----|
|-6------------6--4----------4-||---2-----2-4-----4-|
|------------------------------||o------------------|
|------------------------------||-------------------|


E/G# F#m7 E F#m7 E/G# F#m7
|-----0-------0---|-----0-------0---|-----0-------0---|
|-----------------|-----------------|-----------------|
|---4-------2-----|---1-------2-----|---4-------2-----|
|-6-----6-4-----4-|-2-----2-4-----4-|-6-----6-4-----4-|
|-----------------|-----------------|-----------------|
|-----------------|-----------------|-----------------|


1.
To Coda
E F#m7 E/G# F#m7 E G6
|-----0-------0---|-----0-------0---|----------0---|
|-----------------|-----------------|------------3-|
|---1-------2-----|---4-------2-----|------3s4-----|
|-2-----2-4-----4-|-6-----6-4-----4-|-2------------|
|-----------------|-----------------|--------------|
|-----------------|-----------------|--------------|


2.
F#7 Fmaj7 E E7
|-----0-------0----||--------------|-0--0-0--0---|
|-------2-------1-o||----0--0-0--0-|-3--3-3--3---|
|-4s3-----3s2------||----1--1-1--1-|-1--1-1--1---|
|-5s4-----4s3------||-2--2--2-2--2-|-2--2-2--2---|
|-----------------o||--------------|-------------|
|------------------||--------------|-------------|


Refrén
$$
C#m D#mA (G#m)(F#m)
Gtr I
||--4--4--4-6--5-|-(5)----(4)--(2)---||
||o-5--5--5-7--5-|-(5)----(4)--(2)--o||
||--6--6--6-8--6-|-(6)----(4)--(2)---||
||--6--6--6-8--7-|-(7)----(6)--(4)---||
||o-4--4--4-6--7-|-(7)----(6)--(4)--o||
||-------------5-|-(5)----(4)--(2)---||


D.S. al Coda
D.S. al Coda
G#m F#m G#m B
Gtr IV
|-4--------|-2--------|-4--------|-7-7-7-7-7-7-7-7--|
|-4--------|-2--------|-4--------|-7-7-7-7-7-7-7-7--|
|-4--------|-2--------|-4--------|-8-8-8-8-8-8-8-8--|
|-6--------|-4--------|-6--------|-9-9-9-9-9-9-9-9--|
|-6--------|-4--------|-6--------|-9-9-9-9-9-9-9-9--|
|-4--------|-2--------|-4--------|-7-7-7-7-7-7-7-7--|


Solo
&
E G6 F#7 Fmaj7 E F#m7
Gtr III
|--------------|-----------------|-/12---------------------|
|--------------|-----------------|---------12h14-12-14-----|
|--------------|-----------------|-------------------------|
|--------------|-----------------|-------------------------|
|--------------|-----------------|-------------------------|
|--------------|-----------------|-------------------------|
|
| Gtr I
|----------0---|-----0-------0---|-------0-------------0---|
|------------3-|-------2-------1-|-------------------------|
|------3s4-----|-4s3-----3s2-----|-----1-------------2-----|
|-2----4s5-----|-5s4-----4s3-----|---2------2-----4------4-|
|--------------|-----------------|-------------------------|
|--------------|-----------------|-------------------------|


E/G# F#m7
|---------------------------------|
|-(14)-12h14-12-------------------|
|---------------13-(13)-----11-12-|
|---------------------------------|
|---------------------------------|
|---------------------------------|
|
|-------------0--------------0----|
|---------------------------------|
|-------4-----------------2-------|
|---6----------------6--4-------4-|
|---------------------------------|
|---------------------------------|


E F#m7 E/G# F#m7
|------------------------|------------------------------12-|
|------------12h14p12----|-------------12-/14-----12h14----|
|-13------------------13-|-11h13p11-13---------------------|
|------------------------|---------------------------------|
|------------------------|---------------------------------|
|------------------------|---------------------------------|
|
|------0------------0----|-----------0----------0----------|
|------------------------|---------------------------------|
|----1--------2----------|--------4-----------2------------|
|--2-----2-4-----------4-|--6-----------6---4------4-------|
|------------------------|---------------------------------|
|------------------------|---------------------------------|


E F#m7
|-14-------12-14-------12-14-------12-14-12h14-|
|----12h14-------12h14-------12h14-------------|
|----------------------------------------------|
|----------------------------------------------|
|----------------------------------------------|
|----------------------------------------------|
|
|--------------0-----------------------0-------|
|----------------------------------------------|
|-----1-----------------------2----------------|
|--2--------------2--------4--------------4----|
|----------------------------------------------|
|----------------------------------------------|


E/G# F#m7
|-16-/19---17-16-16h17p16p14-14h16p14p12-12-----|
|-------------------------------------------14--|
|-----------------------------------------------|
|-----------------------------------------------|
|-----------------------------------------------|
|-----------------------------------------------|
|
|--------0--------------------------------0-----|
|-----------------------------------------------|
|------4----------------------2-----------------|
|--6--------6-----4--------------------------4--|
|-----------------------------------------------|
|-----------------------------------------------|


D.S.S. al Dbl. Coda
E E7
|-12-------12s14-14s16-16s19-|-19--19h21-21p19-19-----|
|----------------------------|------------------------|
|----------------------------|------------------------|
|----------------------------|------------------------|
|----------------------------|------------------------|
|----------------------------|------------------------|
|
|----------------------------|--0---0-----0-------0---|
|--0--0--0--0-----------0----|--3---3-----3-------3---|
|--1--1--1--1-----------1----|--1---1-----1-------1---|
|--2--2--2--2-----------2----|--2---2-----2-------2---|
|----------------------------|------------------------|
|----------------------------|------------------------|


Sloka 4
&&
Gtr I
3x
||------0-------0---|-----0-------0----||
||o-----------------|-----------------o||
||----1-------2-----|---4-------2------||
||--2-----2-4-----4-|-6-----6-4-----4--||
||o-----------------|-----------------o||
||------------------|------------------||


Outro
2/4 4/4
|------|-----0-------0---|-----0-------0---|
|------|-----------------|-----------------|
|------|---1-------2-----|---4-------2-----|
|-2----|-2-----2-4-----4-|-6-----6-4-----4-|
|------|-----------------|-----------------|
|------|-----------------|-----------------|


Gtr II
|-------------------|---------------------|-----------------------|
|-------------------|---------------------|-----------------------|
|-------------------|---------------------|-----4---4-4s6---6s9---|
|-------------------|---------------2-4-2-|-2s6-------------------|
|-------------------|---2-(2)---2s4-------|-----------------------|
|-0-----(0)-2---0-2-|-4-------------------|-----------------------|
|
| Gtr I
|-----0---------0---|------0----------0---|-------0---------0-----|
|-------------------|---------------------|-----------------------|
|---1---------2-----|---4-----------2-----|-----1---------2-------|
|-2------2--4-----4-|-6-------6---4-----4-|---2-----2-4---------4-|
|-------------------|---------------------|-----------------------|
|-------------------|---------------------|-----------------------|


H.=H
Emaj7
|------------------------------|-------*|
|---------------------------14-|-17----*|
|-9s11---11s13---13s16---16----|-------*|
|------------------------------|-------*|
|------------------------------|-------*|
|------------------------------|-------*|
|
|---------0---------------0----|-^7----*|
|------------------------------|-^9----*|
|------4---------------2-------|-^8----*|
|-6------------6--4----------4-|-^9----*|
|------------------------------|-^7----*|
|------------------------------|-------*|



 
»
Tvoje obľúbené položky
Tvoje obľúbené položky
»
Najnovšie videá
Najnovšie videá

»
Tvoje obľúbené piesne
Tvoje obľúbené piesne
»
Najnavštevovanejšie piesne
Najnavštevovanejšie piesne
»
Nové albumy interpreta
Nové albumy interpreta



home | interpreti | register piesní | cd & dvd shop | pripomienky/nápady | kontakt | ochrana údajov | inzercia