František Nedvěd


piesne (107)

  texty (98)
  akordy (50)
  taby (8)
  preklady (0)


články (55)
Fotky (16)
diskusia
videá
diskografia
v obchode
odkazy
koncerty
sťahuj



pridaj vlastný článok

František Nedvěd:
Zpěvák František Nedvěd (†73): Před smrtí vydělal víc než jeho bratr! - V posledních měsících před smrtí Františka Nedvěda (†73) došlo k paradoxní s... - blesk.cz


Brontosauři:
František Nedvěd podlehl rakovině plic, bylo mu 73 let - Zemřel český zpěvák a kytarista František Nedvěd. Část svého života vystupoval... - IREPORT


František Nedvěd:
Zemřel František Nedvěd - František Nedvěd, jeden z nejoblíbenějších tuzemských folkových hudebníků, v ne... - musicserver.cz


František Nedvěd:
Poslední minuty Františka Nedvěda: Omylem si vzal víc prášků než měl,
říká rodina
- Podle rodiny Františka Nedvěda (†73) se tomuto legendárnímu umělci, který ... - extra.cz


František Nedvěd:
Dojemné parte Františka Nedvěda (†73): Je na něm úryvek písničkářova
hitu
- Zdrcená rodina zveřejnila parte country zpěváka Františka Nedvěda (†73). Ten podl... - extra.cz


František Nedvěd:
Obrazem: Jeho písně hrál u táboráku skoro každý. Zemřel František
Nedvěd
- Folkový písničkář František Nedvěd v neděli večer zemřel.... - aktualne.cz


František Nedvěd:
Zemřel folkový písničkář František Nedvěd. Bylo mu 73 let - Folkový písničkář František Nedvěd v neděli večer zemřel. Bylo mu 73 let. Na Fa... - ihned.cz


František Nedvěd:
Písničkář František Nedvěd zemřel, podlehl rakovině plic. Bylo mu 73 let - Téma: Kultura Václav Dvořák ČTK Dnes v 23:11 František Nedvěd Zdroj: ČTK V ned... - iprima.cz


František Nedvěd:
Český spevák bojuje s rakovinou: Podstúpil chemoterapiu a potom... Čo sa to
s ním deje?!
- PRAHA - O tom, že bojuje s rakovinou, informoval spevák František Nedvěd v decembri 2... - topky.sk


František Nedvěd:
František Nedvěd několik měsíců po vážné operaci srdce: Obrna hlasivek! - Legendární písníčkář František Nedvěd (73) nejprve v březnu prodělal operaci ... - blesk.cz


 

František Nedvěd

Fanúšikov: 3



A B C Č D E F G H CH I J K L Ľ M N O P Q R S Š T U V W X Y Z Ž



ako:
František Nedvěd - Zlatá rybka
František Nedvěd - Zlatá rybka

tlač

edituj
Pesničku videlo 4545 návštevníkov.

Kvalita tabov : bez hodnotenia
Hodnotilo ľudí: 0 ohodnoť aj ty
  *** Autor textu: František Nedvěd
               G	   C       G	       C	       G

E|-------------3-------------------------------0---------------3---------

H|---------3-------3-------1-------3-------1-------1-------3-------3-----

G|-------0---0---0---0---0---0---0---0---0---0---0---0---0---0---0---0---

D|-----------------------------------------------------------------------

A|-----2---------------3-------2-------3---------------2-----------------

E|-----------------------------------------------------------------------


Už stokrát jsem si na dno sáh a stokrát jsem to vzdal



G C G Ami D

E|-------------3-------------------------------0---------------2---------

H|---------3-------3-------1-------3-------1-------1-------3-------3-----

G|-------0---0---0---0---0---0---0---0---2---2---2---2---2---2---2---2---

D|-----------------------------------------------------------------------

A|-----2---------------3-------2-------0---------------0-----------------

E|-----------------------------------------------------------------------


Pak stokrát jsem tu smůlu splách a na začátku stál


Emi D C Ami

E|-------------3---------------2--------------0---------------0---------

H|---------3-------3-------3-------3------1-------1-------1-------1-----

G|-------0---0---0---0---2---2---2---2--0---0---0---0---2---2---2---2---

D|-----------------------------------------------------------------------

A|-----2---------------0---------------3---------------0-----------------

E|-----------------------------------------------------------------------

Já sníval o třech přáních, když jsem nevěděl jak dál


G C G Ami G

E|-------------3-------------------------------0---------------3---------

H|---------3-------3-------1-------3-------1-------1-------3-------3-----

G|-------0---0---0---0---0---0---0---0---2---2---2---2---0---0---0---0---

D|-----------------------------------------------------------------------

A|-----2---------------3-------2-------0---------------2-----------------

E|-----------------------------------------------------------------------


Ale kdybych zlatou rybku chyt, jen Tebe bych si přál





®efren


Emi D C G

E|-------------3---------------2--------------0---------------3----------

H|---------3-------3-------3-------3------1-------1-------3-------3------

G|-------0---0---0---0---2---2---2---2--0---0---0---0---0---0---0---0----

D|-----------------------------------------------------------------------

A|-----2---------------0---------------3---------------2-----------------

E|-----------------------------------------------------------------------


Mý známý nemáš ráda a dobrý splácíš zlým



Emi D C G

E|-------------3---------------2--------------0---------------3----------

H|---------3-------3-------3-------3------1-------1-------3-------3------

G|-------0---0---0---0---2---2---2---2--0---0---0---0---0---0---0---0----

D|-----------------------------------------------------------------------

A|-----2---------------0---------------3---------------2-----------------

E|-----------------------------------------------------------------------

A nejlíp se Ti hádá, když já už skoro spím


Emi D C Ami

E|-------------3---------------2--------------0---------------0---------

H|---------3-------3-------3-------3------1-------1-------1-------1-----

G|-------0---0---0---0---2---2---2---2--0---0---0---0---2---2---2---2---

D|-----------------------------------------------------------------------

A|-----2---------------0---------------3---------------0-----------------

E|-----------------------------------------------------------------------

Pak marně hledám důvod, kterej za hádku by stál


G C G Ami G

E|-------------3-------------------------------0---------------3---------

H|---------3-------3-------1-------3-------1-------1-------3-------3-----

G|-------0---0---0---0---0---0---0---0---2---2---2---2---0---0---0---0---

D|-----------------------------------------------------------------------

A|-----2---------------3-------2-------0---------------2-----------------

E|-----------------------------------------------------------------------


Ale kdybych zlatou rybku chyt, jen Tebe bych si přál

 
»
Tvoje obľúbené položky
Tvoje obľúbené položky
»
Najnovšie videá
Najnovšie videá

»
Tvoje obľúbené piesne
Tvoje obľúbené piesne
»
Najnavštevovanejšie piesne
Najnavštevovanejšie piesne
Devatenáct - akordy a text

Cherokee Bill - akordy a text

Můj zvon - akordy a text

Valčíček - text

Zlatá rybka - akordy a text

Rozchod - akordy a text

Jako ptáci - akordy a text

Co mám nejraději - akordy a text

Rejdivá - akordy a text

Devatenáct - taby

Jsem jenom chlap - akordy a text

Tvou vůni stále znám - akordy a text

Milovaný řemeslo - akordy a text

To jsem já - text

Rejdivá - taby

Jablůňka - akordy a text

Písnička je lék - akordy a text

Řemeslo - akordy a text

Klekání - akordy a text

Kočovní herci - akordy a text

viac

»
Nové albumy interpreta
Nové albumy interpreta



home | interpreti | register piesní | cd & dvd shop | pripomienky/nápady | kontakt | ochrana údajov | inzercia