Animals


piesne (15)

  texty (10)
  akordy (8)
  taby (3)
  preklady (1)


články (17)
Fotky (10)
diskusia
videá
diskografia
v obchode
odkazy
koncerty
sťahuj



pridaj vlastný článok

Animals:
Zemřel kytarista Hilton Valentine zakládající člen The Animals - V sobotu večer přišla nahrávací společnost ABKCO Music & Records se smutným ozná... - IREPORT


Animals:
Inštrumentálnosti Animals vyšli výkrikom Between v ústretí – report - musicpress.sk


Animals:
Zakladateľ The Animals Eric Burdon vystúpi v augusta na Devíne


Animals:
Úspěch motivuje člověka k další činnosti, říká zpěvák skupiny Pub
Animals
- novinky.cz


Animals:
Stropkovčania spomínali na zlatý vek domáceho bigbítu


Animals:
John Vanderslice, Thank You a Plants & Animals ve fotografiích - freemusic.cz


Ac/dc:
Naj albumy podľa Rolling Stone


Animals:
Festival Kaplický Randál uvede Visací Zámek, Tleskač a další - musiczone.cz


Animals:
hit dňa 5.7.


Animals:
Pamela Anderson vydražila auto, aby pomohla plazom - Bleskovky - Main


 

Animals

Fanúšikov: 0



A B C Č D E F G H CH I J K L Ľ M N O P Q R S Š T U V W X Y Z Ž



ako:
Animals - House Of The Rising Sun (simple Fingerstyle)
Animals - House Of The Rising Sun (simple Fingerstyle)

tlač

edituj
Pesničku videlo 4402 návštevníkov.

Kvalita tabov : bez hodnotenia
Hodnotilo ľudí: 0 ohodnoť aj ty
Prispievateľ:
petr554
  *** Autor textu: The Animals *** Autor hudby: The Animals
                      House Of The Rising Sun                         
simple fingerstyle ver.

The Animal

Acoustic steel gtr



Em Emadd9 G
Q Q E E E E E E E E E E E E E E
E||------------------|------------------------|--3--------------7--|
B||---------------5--|--5--------------7------|--------------------|
G||------------------|-----------4------------|-----------4--------|
D||------------------|--------5-----5---------|--------5-----5-----|
A||------------------|-----7------------------|-----5--------------|
E||------------------|--0---------------------|--3-----------------|


A C Em
E E E E E E E E E E E E E E E E E E
--5-----------------|-----------------12--|--12--------------12--|
-----------------5--|--5------------------|------0------------0--|
-----------6--------|-----------5---------|---------0-----0------|
--------7-----7-----|--------5-----5------|----------------------|
-----7--------------|-----7---------------|----------------------|
--5-----------------|--8------------------|---0--------0---------|


G/D B
E E E E E E E E E E E E E E E E E E
--10--7------------5--|--7-----------------|-----------------12--|
---0------------------|-----7-----------7--|-----------7---------|
---0------4--------4--|--------8-----8-----|--------8-----8------|
----------------5-----|-----------7--------|-----7---------------|
-------------5--------|--------------------|---------------------|
----------------------|--7-----------------|--7------------------|


Em G/D A
E E E E E E E E E E E E E E E E E E
--12--------------12--|--10--7------------7--|--5--------------3--|
------0------------0--|---0---------------0--|-----------2--------|
---------0-----0------|---0------4-----------|--------2-----2-----|
----------------------|----------------5-----|-----2--------------|
----------------------|-------------5--------|--------------------|
---0--------0---------|----------------------|--0-----------------|


C C7Madd11 Em B
E E E E E E E E E E E E E E E E E E
--0--------------1--------|--0--------------0--|--------------------|
-----1-----------0--------|-----------0-----0--|--4--------------4--|
--------0-----0-----------|--------0-----0-----|-----4-----------4--|
-----------2--------------|-----2--------------|--------4-----4-----|
--3-----------------------|--------------------|--------------------|
--------------------------|--0-----------------|--7--------7--------|


Em
E E E E E E Q Q E E
--0-----------------|------------12-----||
-----------0--------|------------12-----||
--------0-----0-----|------------12-----||
-----2-----------2--|-------------------||
--------------------|-------------------||
--0-----------------|--0----------------||


v pdf:
https://www.dropbox.com/s/h6udccmb6phw4k2/
Animals%20%28The%29%20-%20The%20House%20Of%20The%20Rising%20Sun%20Fingerstyle.pdf


Duration Legend
---------------
W - whole
H - half
Q - quarter
E - 8th
S - 16th
T - 32nd
X - 64th
. - note dotted
|-n-| - n-tuplets


Tablature Legend
----------------
L - tied note
x - dead note
g - grace note
(n) - ghost note
> - accentuded note
NH - natural harmonic
AH - artificial harmonic
TH - tapped harmonic
SH - semi harmonic
PH - pitch harmonic
h - hammer on
p - pull off
b - bend
br - bendRelease
pb - preBend
pbr - preBendRelease
brb - bendReleaseBend
\n/ - tremolo bar dip
\n - tremolo bar dive
-/n - tremolo bar Release up
/n\ - tremolo bar inverted dip
/n - tremolo bar return
-\n - tremolo bar Release down
S - shift slide
s - legato slide
/ - slide into from below or out of upwards
\ - slide into from above or out of downwards
~ - vibrato
W - wide vibrato
tr - trill
TP - tremolo picking
T - tapping
S - slap
P - pop
< - fade in
^ - brush up
v - brush down

 
»
Tvoje obľúbené položky
Tvoje obľúbené položky
»
Najnovšie videá
Najnovšie videá

»
Tvoje obľúbené piesne
Tvoje obľúbené piesne
»
Najnavštevovanejšie piesne
Najnavštevovanejšie piesne
»
Nové albumy interpreta
Nové albumy interpreta



home | interpreti | register piesní | cd & dvd shop | pripomienky/nápady | kontakt | ochrana údajov | inzercia