Blue Effect


piesne (20)

  texty (10)
  akordy (6)
  taby (9)
  preklady (0)


články (114)
Fotky (17)
diskusia
videá
diskografia
v obchode
odkazy
koncerty
sťahuj



pridaj vlastný článok

Blue Effect:
Vladimír Mišík vydá v září nové album s názvem Noční obraz - Praha - Zpěvák, hudebník a zakládající člen kapel Blue Effect a Etc... Vladim... - ceskenoviny.cz


Blue Effect:
Vladimír Mišík kvůli dlouhodobým zdravotním problémům končí s
koncertováním
- Zpěvák, hudebník a zakládající člen kapel Blue Effect a Etc... Vladimír Mišík n... - idnes.cz


Blue Effect:
Omlouvám se, už nemohu. Vladimír Mišík oznámil, že končí s
koncertováním
- Zpěvák, hudebník a zakládající člen kapel Blue Effect a Etc... Vladimír Mišík... - novinky.cz


Blue Effect:
Honza Křížek mění sestavu a chystá druhou sólovku - Honza Křížek využil nucenou koncertní pauzu k přemýšlení. Výsledkem je, že zp... - musicserver.cz


Abraxas:
Vychádza Art Rock Line 1971–1985. Šiesty diel populárnej Line edície - Vychádza Art Rock Line 1971–1985. Šiesty diel populárnej Line edície 04.02.2021 ... - zoznam.sk


Blue Effect:
TOP 10 instrumentálních písní. Pššššt! Když nezpívají Pink Floyd, Led
Zeppelin, Blue Effect, Mr Oizo a další
- Česká republika už třetí týden připomíná Půlnoční království, zpěv na veř... - IREPORT


Blue Effect:
Brno uctí rockovou legendu: Oldřichovi Veselému (†70) postaví pomník ve
skupině čestných hrobů
- Proslul jako skladatel, zpěvák a klávesista ve skupinách Synkopy 61 a Blue Effect. B... - blesk.cz


Blue Effect:
Členové Blue Effectu Radima Hladíka oživí s orchestrem a hosty kultovní
Novou Syntézu
- ČLENOVÉ BLUE EFFECTU RADIMA HLADÍKA OŽIVÍ S HOSTY KULTOVNÍ NOVOU SYNTÉZU. DORAZÍ ... - rockandpop.cz


Blue Effect:
Rodina kytaristy Hladíka pokřtí předělávku alba Nová syntéza - Praha - Křest předělávky desek Nová syntéza a Nová syntéza 2 rockové skupiny... - ceskenoviny.cz


Blue Effect:
V reedici vyšel komplet Nová syntéza kapely Blue Effect - 16 března 2020 Milan Slezák Žádné komentáře Novinky V reedici vyšel komplet N... - rockandpop.cz


 

Blue Effect

Fanúšikov: 0



A B C Č D E F G H CH I J K L Ľ M N O P Q R S Š T U V W X Y Z Ž



ako:
Blue Effect - Čajovna
Blue Effect - Čajovna

tlač

edituj
Rok vzniku: 2006
V originále: Radim Hladík a Blue effect
Poznámka: To jsem nenapsal já,já to pouze popularizuji.

Pesničku videlo 39320 návštevníkov.

Kvalita tabov : bez hodnotenia
Hodnotilo ľudí: 0 ohodnoť aj ty
  *** Autor textu: instrumentální *** Autor hudby: Radim Hladík

As recorded by Radim Hladik

(From the 1992 Album CZECH MASTERS OF ROCK GUITAR)



Music by Radim Hladik

Transcribed by tommy



Am Em Bm Gm

x 0 2 2 1 0 0 2 2 0 0 0 x 2 4 4 3 2 3 5 5 3 3 3



Dm C E G

x 5 7 7 6 5 x 3 2 0 1 0 0 2 2 1 0 0 3 2 0 0 3 3



B F#m C#m G#m

x 2 4 4 4 2 2 4 4 2 2 2 x 4 6 6 5 4 4 6 6 4 4 4



A C# G# Ebm

5 7 7 6 5 5 x 4 6 6 6 4 4 6 6 5 4 4 x 6 8 8 7 6



Bbm F Fm F#

6 8 8 6 6 6 x 8 7 5 6 5 1 3 3 1 1 1 2 4 4 3 2 2



Bb Cm Eb D

6 8 8 7 6 6 x 3 5 5 4 3 x 6 5 3 4 3 x x 0 2 3 2



Gtr I (E A D G B E) - 'Distorted'

Gtr II (E A D G B E) - 'Synthetizer'



Q=108

Am

2/4 4/4

Gtr II

H W

|

/



Gtr I

E E E E H E E E E

|-10h12-10h12-|-------------------|

|-------------|-10----10h12-10h12-|

|-------------|-------------------|

|-------------|-------------------|

|-------------|-------------------|

|-------------|-------------------|





Em Bm

W W +W

| | |

/ / /



H E E E E W +H E E E E

|----------------|----------|--------8h10-8h10---|

|----------------|----------|--------------------|

|-9----9h11-9h11-|----------|--------------------|

|----------------|-9--------|-(9)----------------|

|----------------|----------|--------------------|

|----------------|----------|--------------------|





Gm Dm Am

W W W +W

| | | |

/ / / /



H E E E E H E E E E W +H E E E E

|----------------|--------------|----------|----------------|

|-8----8h10-8h10-|--------------|----------|----------------|

|----------------|-7----7h9-7h9-|----------|--------2-1-2-4-|

|----------------|--------------|-7--------|-(7)------------|

|----------------|--------------|----------|----------------|

|----------------|--------------|----------|----------------|





C E G B

W W W W

| | | |

/ / / /



H E E E E H E E E E H E E E E H E E E E

|--------------|-------------2-|-3----3-2-3-5-|-/7----7h9-7h9-|

|------------3-|-/5----5-4-5---|--------------|---------------|

|-5----5-4-5---|---------------|--------------|---------------|

|--------------|---------------|--------------|---------------|

|--------------|---------------|--------------|---------------|

|--------------|---------------|--------------|---------------|





F#m C#m G#m

W W W +W

| | | |

/ / / /



H E E E E H E E E E H +E S S S S S S Q Q E E E E

|--------------|--------------|----------------------|--------5h7-5h7--|

|-7----7h9-7h9-|--------------|----------------------|-----------------|

|--------------|-6----6h8-6h8-|----------------6-----|-----------------|

|--------------|--------------|-6----(6)-6h8h9---8h9p|==6--------------|

|--------------|--------------|----------------------|-----------------|

|--------------|--------------|----------------------|-----------------|





Em Bm F#m

W W W +W

| | | |

/ / / /



Q. E E E E E H E E E E H +E S S S S S S Q Q E E E E

|-------------------|-----------------|----------------------|-----------------|

|-5----5-7pb8r7-5---|-----------------|----------------------|-----------------|

|-----------------7-|-4----6pb7r6-4---|----------------4-----|--------------1--|

|-------------------|---------------7-|-4----(4)-4h6h7---6h7p|==4-----4-3-4----|

|-------------------|-----------------|----------------------|-----------------|

|-------------------|-----------------|----------------------|-----------------|





A C# E G#

W W W W

| | | |

/ / / /



Q. E E E E E H E E E E Q. E E E E E H E E E E

|----------------|---------------|----------------|-------16h18-16h18-|

|----------------|-/2----2-1-2-4-|-5------5-4-5-7-|-/9----------------|

|-2------2-1-2-4-|---------------|------4---------|-------------------|

|------2---------|---------------|----------------|-------------------|

|----------------|---------------|----------------|-------------------|

|----------------|---------------|----------------|-------------------|





Ebm Bbm Fm

W W W +W

| | | |

/ / / /



H E E E E H E E E E W +H E E E E

|-------------------|-------------------|-----------|---------14h16-14h16-|

|-16----16h18-16h18-|-------------------|-----------|---------------------|

|-------------------|-15----15h17-15h17-|-----------|---------------------|

|-------------------|-------------------|-15--------|-(15)----------------|

|-------------------|-------------------|-----------|---------------------|

|-------------------|-------------------|-----------|---------------------|





C#m G#m Ebm

W W W +W

| | | |

/ / / /



H E E E E H E E E E W +H E E E E

|-----------------------|-----------------------|-----------|------------------|

|-14----16pb17r16-14----|-----------------------|-----------|------------------|

|--------------------16-|-13----15pb16r15-13----|-----------|------------------|

|-----------------------|--------------------16-|-13--------|-(13)----1-0-1-3-|

|-----------------------|-----------------------|-----------|------------------|

|-----------------------|-----------------------|-----------|------------------|





F# Bb

W W

| |

/ /



E E E E Q. E E E E E E E E E

|----------------|-------------------|

|----------------|-------------------|

|----------------|-------------------|

|-4---4-6-4----6-|-8---8-10-8-7-8-10-|

|---4------------|---8---------------|

|----------------|-------------------|





C# F

W W

| |

/ /



E E E E Q E E H E E E E

|-----------------------|-------13h15-13h15-|

|-----------------------|-------------------|

|-----------------------|-------------------|

|-11----11-13-11--13S15-|-15----------------|

|----11-----------------|-------------------|

|-----------------------|-------------------|





Cm Gm

W W

| |

/ /



|--3--|

H +E S S S S E. +Q. E e e Q

|-------------------------------|----------------------|

|-13----(13)-15h16h18h20-16b18==|=(16)r---16-15-13-15--|

|-------------------------------|----------------------|

|-------------------------------|----------------------|

|-------------------------------|----------------------|

|-------------------------------|----------------------|





Dm

W +W

| |

/ /



W +H E E E E

|-----------|---------11h13-11h13-|

|-----------|---------------------|

|-----------|---------------------|

|-12--------|-(12)----------------|

|-----------|---------------------|

|-----------|---------------------|





Bbm Fm

W W

| |

/ /



|--3--|

Q. S E. S S S S S E +Q. S S E E S S S S

|----------------------------------|--------------------------------------|

|-11----11-13b14r13-11----11-------|--------------------------------------|

|----------------------13----13-10-|-(10)---10-12-12b13-12b13----10-------|

|----------------------------------|--------------------------13----13-10-|

|----------------------------------|--------------------------------------|

|----------------------------------|--------------------------------------|





Cm

W +W

| |

/ /



|--3--| |--3--| |--3--|

+H +E S S S S S S S S S H E E E E

|-----------------------------------------|---------------|

|-----------------------------------------|---------------|

|-----------------------12h13p12----------|---------------|

|-(10)----(10)-12h13h15----------15p13p12-|-10----------0-|

|-----------------------------------------|-------3-2-3---|

|-----------------------------------------|---------------|





Eb G Bb D

W W W W

| | | |

/ / / /



H E E E E H E E E E H E E E E H E E E E

|--------------|--------------|---------------|------10h12-10h12-|

|--------------|--------------|---------------|------------------|

|--------------|--------------|---------------|-7----------------|

|-1----1-0-1-3-|-5----5-4-5-7-|-8----8-7-8-10-|------------------|

|--------------|--------------|---------------|------------------|

|--------------|--------------|---------------|------------------|





Am Em Bm

W W W +W

| | | |

/ / / /



H E E E E H E E E E W +H E E E E

|-------------------|----------------|----------|--------8h10-8h10-|

|-10----10h12-10h12-|----------------|----------|------------------|

|-------------------|-9----9h11-9h11-|----------|------------------|

|-------------------|----------------|-9--------|-(9)--------------|

|-------------------|----------------|----------|------------------|

|-------------------|----------------|----------|------------------|





Gm Dm Am

W W W +W

| | | |

/ / / /



Q. E E E E E Q. E E E E E W +H E E E E

|-----------------------|---------------------|----------|----------------|

|-8----8-10pb11r10-8----|---------------------|----------|----------------|

|--------------------10-|-7----7-9pb10r9-7----|----------|----------------|

|-----------------------|------------------10-|-7--------|-(7)------------|

|-----------------------|---------------------|----------|--------------2-|

|-----------------------|---------------------|----------|--------5-4-5---|





C E

W W

| |

/ /



E E E E Q. E E E E E E E E E

|----------------|-----------------|

|----------------|-----------------|

|----------------|-----------------|

|----------------|-----------------|

|-3---3-5-3----5-|-7---7-9-7-6-7-9-|

|---3------------|---7-------------|





G B

W W +W

| | |

/ / /



PM----|

E E E E Q Q W +H e e e e

|---------------------|----------|--------7-9-7-9-|

|---------------------|----------|----------------|

|---------------------|----------|----------------|

|---------------------|-9--------|-(9)------------|

|-10----10-12-10--12--|----------|----------------|

|----10---------------|----------|----------------|





F#m C#m G#m

W W W +W

| | | |

/ / / /



PM----| PM----| PM----|

H e e e e H e e e e W +H e e e e

|--------------|--------------|----------|--------5-7-5-7-|

|-7----7-9-7-9-|--------------|----------|----------------|

|--------------|-6----6-8-6-8-|----------|----------------|

|--------------|--------------|-6--------|-(6)------------|

|--------------|--------------|----------|----------------|

|--------------|--------------|----------|----------------|





Em Bm

W W

| |

/ /



|-3-| |-3-|

Q. S E. S S S S S E +Q. S E. S S S S S E

|------------------------|-------------------------|

|-5----5-7b8r7-5---------|-------------------------|

|----------------7-9-7-4-|-(4)---4-6b7r6-4---------|

|------------------------|-----------------7-9-7-4-|

|------------------------|-------------------------|

|------------------------|-------------------------|





F#m

W

|

/



|-3-| |-3-| |-3-|

+H +E S S S S S S S S S

|-------------------------------|

|-------------------------------|

|------------------6h7p6--------|

|-(4)----(4)-6h7h9-------9p7p6--|

|-------------------------------|

|-------------------------------|





A C# E

+W W W W

| | | |

/ / / /



H E E E E Q. E E E E E H E E E E H E E E E

|---------------|----------------|------------------|---------------|

|---------------|----------------|------------------|---------------|

|---------------|----------------|----------------8-|-9----9-8-9-11-|

|--4----4-3-4-6-|-7------7-6-7-9-|-11----11-10-11---|---------------|

|---------------|------7---------|------------------|---------------|

|---------------|----------------|------------------|---------------|





H.=H Q=45 H.=H

G# B Eb

W W +Q H. W

| | | | |

/ / / / /



+H E E E E W Q E Q E E E W

|------------16h18-16h18-|-----------|-------------------------|-------*|

|------------------------|-16--------|-----16--18b19r=18-16----|-16----*|

|-(11)b13----------------|-----------|----------------------18-|-------*|

|------------------------|-----------|-------------------------|-------*|

|------------------------|-----------|-------------------------|-------*|

|------------------------|-----------|-------------------------|-------*|





Duration Legend

---------------

W - whole; H - half; Q - quarter; E - 8th; S - 16th; T - 32nd; X - 64th; a - acciaccatura

+ - note tied to previous; . - note dotted; .. - note double dotted

Uncapitalized letters represent notes that are staccato (1/2 duration)

Irregular groupings are notated above the duration line

Duration letters will always appear directly above the note/fret number it represents the

duration for. Duration letters with no fret number below them represent rests. Multi-

bar rests are notated in the form Wxn, where n is the number of bars to rest for. Low

melody durations appear below the staff



Tablature Legend

----------------

h - hammer-on

p - pull-off

b - bend

pb - pre-bend

r - bend release (if no number after the r, then release immediately)

/ - slide into or out of (from/to "nowhere")

s - legato slide

S - shift slide

- natural harmonic

n - artificial harmonic

n(n) - tapped harmonic

~ - vibrato

tr - trill

T - tap

TP - trem. picking

PM - palm muting

n/ - tremolo bar dip; n = amount to dip

n - tremolo bar down

n/ - tremolo bar up

/n - tremolo bar inverted dip

= - hold bend; also acts as connecting device for hammers/pulls

<> - volume swell (louder/softer)

x - on rhythm slash represents muted slash

o - on rhythm slash represents single note slash



Misc Legend

-----------

| - bar

|| - double bar

||o - repeat start

o|| - repeat end

*| - double bar (ending)

: - bar (freetime)

$ - Segno

& - Coda

Tempo markers - = BPM(8/16=s8/s16), where s8 = swing 8ths, s16 = swing 16ths



 
»
Tvoje obľúbené položky
Tvoje obľúbené položky
»
Najnovšie videá
Najnovšie videá

»
Tvoje obľúbené piesne
Tvoje obľúbené piesne
»
Najnavštevovanejšie piesne
Najnavštevovanejšie piesne
»
Nové albumy interpreta
Nové albumy interpreta



home | interpreti | register piesní | cd & dvd shop | pripomienky/nápady | kontakt | ochrana údajov | inzercia