Jaromír Nohavica


piesne (905)

  texty (255)
  akordy (255)
  taby (122)
  preklady (97)


články (333)
Fotky (32)
diskusia
videá
diskografia
v obchode
odkazy
koncerty
sťahuj



pridaj vlastný článok

Jaromír Nohavica:
RECENZE: Koncert o síle písničky. Nohavica našel v Praze vstřícné
publikum
- Žijeme v době realizace odložených koncertů. Také koncert Jaromíra Nohavici patři... - idnes.cz


Jaromír Nohavica:
Nohavica zazpívá v Bílovci na koncertě pro uprchlíky, bude se i dražit
obraz
- Bílovec (Novojičínsko) - Písničkář Jaromír Nohavica vystoupí ve čtvrtek 5. ... - ceskenoviny.cz


Jaromír Nohavica:
Nohavica koncertoval v Hodoníně. Bez protestů a s aplausem na závěr - Na plakáty v centru jihomoravského Hodonína, které zvaly na vystoupení Jaromíra No... - novinky.cz


Jaromír Nohavica:
Narozen v komunismu, umřu v komunismu! Nohavica si stěžuje na zrušené
koncerty
- Písničkář Jaromír Nohavica (68) se prostřednictvím webov ch str... - blesk.cz


Jaromír Nohavica:
„Narodil som sa počas komunizmu a v komunizme aj zomriem.“ Jaromír
Nohavica reaguje na zrušené koncerty
- Spevák a textár Jaromír Nohavica prirovnal svoje zrušené koncerty ku komunistickým ... - Refresher.sk


Jaromír Nohavica:
Nohavica, oceněný Putinem, se ohradil proti rušení svých koncertů - Ostrava - Písničkář Jaromír Nohavica se prostřednictvím webových stránek ohr... - ceskenoviny.cz


Jaromír Nohavica:
Další Nohavicův koncert zrušen. Uherský Brod ho nechce - Dům kultury v Uherském Brodě na Uherskohradišťsku zrušil na doporučení radních ... - novinky.cz


Jaromír Nohavica:
O koncerty přichází kvůli medaili od Putina. Co vzkázal fanouškům
Jaromír Nohavica po další zrušené akci?
- Jaromír ... - super.cz


Jaromír Nohavica:
Člověk v tísni odmítá peníze z benefičního koncertu Nohavici. Organizaci
vadí zpěvákova medaile od Putina
- Písničkář Jaromír Nohavica byl v minulosti oceněn vyznamenáním od ruského prezi... - evropa2.cz


Jaromír Nohavica:
Jarek Nohavica se medaile od Putina nevzdá. Uspořádá ale benefiční koncert
pro Ukrajinu
- Zpěvák Jaromír Nohavica připravuje benefiční koncert, jehož výtěžek půjde na p... - evropa2.cz


 

Jaromír Nohavica

Fanúšikov: 31



A B C Č D E F G H CH I J K L Ľ M N O P Q R S Š T U V W X Y Z Ž



ako:
Jaromír Nohavica - Kometa - tab
Jaromír Nohavica - Kometa - tab

tlač

edituj
Pesničku videlo 60590 návštevníkov.

Kvalita tabov : bez hodnotenia
Hodnotilo ľudí: 0 ohodnoť aj ty
  *** Autor textu: Jaromír Nohavica *** Autor hudby: Jaromír Nohavica

Intro:2x
Ami
e |----------------|----------------|
h |----1---0---1–--|----1---0---1–--|
g |---2-2---2–––2--|---2-2---2–––2--|
D |--2---2---2---2–|--2---2---2---2–|
A |-0--------------|-0--------------|
E |----------------|----------------|

1.
Ami
e |----------------|----------------|
h |----1---0---1–--|----1---0---1–--|
g |---2-2---2–––2--|---2-2---2–––2--|
D |--2---2---2---2–|--2---2---2---2–|
A |-0--------------|-0--------------|
E |----------------|----------------|

Spatřil jsem kometu, oblohou letěla, chtěl jsem jí zazpívat, ona mi zmizela

Dmi G7 C E7
|----1---|--------|----0---|--––––––-|
|---3-3--|----0---|---1-1--|---––3–––|
|--2---0-|---0-0--|------0-|----1–1–-|
|-0------|--0---0-|--2-----|---2-–-2–|
|--------|--------|-3------|----––––-|
|--------|-3------|--------|–-0–––––-|

zmizela jako lan u lesa v remízku, v ocích mi zbylo jen pár žlutých penízku
Ami
e |----------------|----------------|
h |----1---0---1–--|----1---0---1–--|
g |---2-2---2–––2--|---2-2---2–––2--|
D |--2---2---2---2–|--2---2---2---2–|
A |-0--------------|-0--------------|
E |----------------|----------------|

Penízky ukryl jsem do hlíny pod dubem, až příště přiletí, my už tu nebudem

Dmi G7 C E7
|----1---|--------|----0---|--––––––-|
|---3-3--|----0---|---1-1--|---––3–––|
|--2---0-|---0-0--|------0-|----1–1–-|
|-0------|--0---0-|--2-----|---2-–-2–|
|--------|--------|-3------|----––––-|
|--------|-3------|--------|–0-–––––-|

my už tu nebudem, ach, pýcho marnivá, spatřil jsem kometu, chtěl jsem jí zazpívat

Refrén : 1
Ami Dmi
e |----------------|----1---0---1---|
h |----1---0---1–--|---3-3---3---3--|
g |---2-2---2–––2--|--2---2---2---2-|
D |--2---2---2---2–|-0------------–-|
A |-0--------------|-------------––-|
E |----------------|-------------––-|

O vode, o tráve, o lese,

G7 C
|----------------|-------------|
|----3---1--0----|----1--3--1--|
|---0-0---0---0--|---0-0--0--0-|
|--0---0---0---0-|--2---2--2--2|
|----------------|-3-----------|
|-3--------------|-------------|

o smrti, s e kterou smířit nejde se

Ami Dmi
e |----------------|----1---0---1---|
h |----1---0---1–--|---3-3---3---3--|
g |---2-2---2–––2--|--2---2---2---2-|
D |--2---2---2---2–|-0------------–-|
A |-0--------------|-------------––-|
E |----------------|-------------––-|

o lásce, o zradě, o světě

E/E7
|--------0-------|
|----3--------3--|
|---1-1---1----1-|
|--2---2---2----2|
|----------------|
|-0--------------|

a o všech lidech, co kdy žili na téhle

Ami E
|--------|--––-–––|
|----1---|----0-–-|
|---2-2--|---1-1--|
|--2---2-|--2--–2-|
|-0------|---––––-|
|--------|–0–––-–-|

planetě.

 
»
Tvoje obľúbené položky
Tvoje obľúbené položky
»
Najnovšie videá
Najnovšie videá

»
Tvoje obľúbené piesne
Tvoje obľúbené piesne
»
Najnavštevovanejšie piesne
Najnavštevovanejšie piesne
Kometa - akordy a text

Když mě brali za vojáka - akordy a text

Darmoděj - akordy a text

Hlídač krav - akordy a text

Zatímco se koupeš - akordy a text

Křídla z mýdla - akordy

Dokud se zpívá ještě se neumřelo - akordy a text

Mám jizvu na rtu - akordy a text

Mikymauz - akordy a text

Ostravo, Ostravo - akordy a text

Pijte vodu - akordy a text

Milionář - akordy a text

Petěrburg - akordy a text

Sarajevo - akordy a text

Kozel - akordy a text

Kometa - tab - taby

Starý muž - akordy a text

U nás na severu - akordy a text

Jdou po mně jdou - oprava - akordy a text

Dokud se zpívá - pro začátečníky - akordy a text

viac

»
Nové albumy interpreta
Nové albumy interpreta



home | interpreti | register piesní | cd & dvd shop | pripomienky/nápady | kontakt | ochrana údajov | inzercia