Blackmore Ritchie


piesne (6)

  texty (0)
  akordy (0)
  taby (6)
  preklady (0)


články (1)
Fotky (0)
diskusia
videá
diskografia
v obchode
odkazy
koncerty
sťahuj



pridaj vlastný článok

Bedlam:
Rainbow Rising – hard-rockový postulát - Rainbow Rising – hard-rockový postulát Rainbow - Rising 1976 Ritchie Blackmore, syn... - rocker.sk


 

Blackmore Ritchie

Fanúšikov: 0



A B C Č D E F G H CH I J K L Ľ M N O P Q R S Š T U V W X Y Z Ž



ako:
Blackmore Ritchie - Mem'm'ingen
Blackmore Ritchie - Mem'm'ingen

tlač

edituj
Pesničku videlo 1347 návštevníkov.

Kvalita tabov : bez hodnotenia
Hodnotilo ľudí: 0 ohodnoť aj ty

Moderato, 4/4

, , | , , , | , , , | , , , | , , ,
||0h--2---|3-------0h2p0-------------------0-------------------------------|
||o-------|0---0-----------3---------------1-------------------------------|
||--------|------------------------0-------0-------------------------------|
||--------|2---------------0---------------2-------------------------------|
||o-------|--------------------------------3-------------------------------|
||--------|--------------------------------S*------------------------------|

1---------------------------------------------------------------|
| , , , | , , , | , , , | , , , |
|----------------------------------------------------------------||
|1-------1p0-------------0-------*------------------------------o||
|2-----------2---0-----------2---2-------------------------------||
|2---------------2---------------0-------------------------------||
|0--------------------------------------------------------------o||
|S---------------0---------------2-------------------------------||

|---------------------------------------------------------------2
|| , , , | , , , | , , , | , , ,
|----------------------------------------------------------------|
|1-------1p0-------------S-------S*------------------------------|
|2-----------2---0-------2-------1-------------------------------|
|2---------------2-------3-------0-------------------------------|
|0-----------------------3-------2-------------------------------|
|----------------0-------1-------0-------------------------------|


| , , , | , , , | , , , | , , ,
|----------------S-----------------------------------------------|
|1---------------3-----------1---0---------------1-----------0---|
|--------2-------2-----------------------0-------2---------------|
|----------------0-------------------------------------------2---|
|0---------------------------------------2-------0---------------|
|--------3-------2---------------3-------------------------------|

| , , , | , , , | , , , | , , ,
|--------------------------------S---------------0---------------|
|----------------S---------------0h1p0---3-------1---------------|
|2---------------2---------------2-------0-------0---------------|
|--------2-------2-------2---------------0-------2---------------|
|0-------------------------------0-------2-------3---------------|
|----------------0-------------------------------S---------------|

| , , , | , , , | , , , | , , ,
|1p--0---------------------------0---------------S---------------|
|--------3---1---0-----------------------0-------1-------0-------|
|------------------------0-----------------------2---------2p0---|
|0-------------------------------2---------------2---------------|
|----------------2-----------------------2-------0---------------|
|------------------------3---------------------------------------|

| , , , | , , , | , , , | , , ,
|----------------------------------------------------------------|
|--------0h--1---0-----------------------*-----------------------|
|2-------------------------------2p--1---2-----------------------|
|2---------------2-----------------------2-----------------------|
|----------------------------------------0-----------------------|
|0---------------0-----------------------------------------------|

, , | , , , | , , , | , , , | , , ,
|0h--2---|3-------0h2p0-------------------0-------------------------------|
|--------|0---0-----------3---------------1-------------------------------|
|--------|------------------------0-------0-------------------------------|
|--------|2---------------0---------------2-------------------------------|
|--------|--------------------------------3-------------------------------|
|--------|--------------------------------S*------------------------------|

| , , , | , , , | , , , | , , ,
|----------------------------------------------------------------|
|1-------1p0-------------0-------*-------------------------------|
|2-----------2---0-----------2---2-------------------------------|
|2---------------2---------------0-------------------------------|
|0---------------------------------------------------------------|
|S---------------0---------------2-------------------------------|

, , | , , , | , , , | , , , | , , ,
|0h--2---|3-------0h2p0-------------------0-------------------------------|
|--------|0---0-----------3---------------1/--------------8---------------|
|--------|------------------------0-------0-------------------------------|
|--------|2---------------0---------------2-------------------------------|
|--------|--------------------------------3-------------------------------|
|--------|--------------------------------S*------------------------------|

S*
| , , , | , , , | , , , | , , ,
|--------------------------------0-------------------------------||
|8---------7---------------------0-------------------------------||
|9-------9-----9---------11-----1-------------------------------||
|9---------------9---------------2-------------------------------||
|S-------------------------------2-------------------------------||
|--------------------------------0-------------------------------||
|--3--|


 
»
Tvoje obľúbené položky
Tvoje obľúbené položky
»
Najnovšie videá
Najnovšie videá

»
Tvoje obľúbené piesne
Tvoje obľúbené piesne
»
Najnavštevovanejšie piesne
Najnavštevovanejšie piesne
»
Nové albumy interpreta
Nové albumy interpreta



home | interpreti | register piesní | cd & dvd shop | pripomienky/nápady | kontakt | ochrana údajov | inzercia