Blackmore Ritchie


piesne (6)

  texty (0)
  akordy (0)
  taby (6)
  preklady (0)


články (1)
Fotky (0)
diskusia
videá
diskografia
v obchode
odkazy
koncerty
sťahuj



pridaj vlastný článok

Bedlam:
Rainbow Rising – hard-rockový postulát - Rainbow Rising – hard-rockový postulát Rainbow - Rising 1976 Ritchie Blackmore, syn... - rocker.sk


 

Blackmore Ritchie

Fanúšikov: 0



A B C Č D E F G H CH I J K L Ľ M N O P Q R S Š T U V W X Y Z Ž



ako:
Blackmore Ritchie - All Things Are Quite Silent
Blackmore Ritchie - All Things Are Quite Silent

tlač

edituj
Pesničku videlo 1734 návštevníkov.

Kvalita tabov : bez hodnotenia
Hodnotilo ľudí: 0 ohodnoť aj ty

Part A
| | | | | | | | | | | | |
|----||------------|----0---2---|----0-------|------------|
|--0-||1-----0-----|3-----------|3-----3p0---|----------0-|
|2---||--2-----2---|2-----------|--2---------|2-------2---|
|----||----2-------|0-----------|0-----------|--2---2-----|
|----||0-----------|------------|------------|0---0-------|
|----||------------|------------|------------|------------|

| | | | | | | | | | | |
|------------|0-2-3-------|0-----2-3---|0-------0---|
|1-----0-----|0-----0-----|--0---------|--0-----0---|
|--2-----2---|--------0---|----0-------|----0-------|
|----2-------|2---------2-|------------|2-----2-----|
|0-----------|------------|------------|------------|
|------------|------------|0-----------|------------|

| | | | | | | | | | | |
|5---3---2---|3---2---0---|2-----0-----|3-----------|
|------------|------------|--3-----3---|--1-------1-|
|------------|--0---0---0-|----2-------|----0---0---|
|0-----------|------------|0-----------|------2-----|
|------------|3-----------|------------|3-----------|
|------------|------------|------------|------------|

| | | | | | | | | | | |
|--------0---|------------|----0---2---|----0-------|
|----------3-|1-----0-----|3-----------|3-----3p0---|
|----0-------|--2-----2---|2-----------|--2---------|
|--0---0-----|----2-------|0-----------|0-----------|
|2-----------|0-----------|------------|------------|
|------------|------------|------------|------------|

| | | | | | | | | | | |
|------------|------------|------------|------------|
|----------1-|0-----------|------------|------------|
|2-------2---|------0-2-0-|2-------2-0-|----------0-|
|--2---2-----|------------|------0-----|2-------2---|
|----0-------|----2-------|----0-------|--2---2-----|
|------------|--3---------|--2---------|----0-------|

| | | | | | | | | | | |
|------------|------------|0-------0-3-|2p0---------|
|----------1-|3-------3---|--1---------|----3-------|
|2-------2---|----0-------|----0-------|2-----2---0-|
|--2---2-----|--0---0-----|------2-----|0-----------|
|----0-------|2-----------|3-----------|------------|
|------------|------------|------------|------------|

| | | | | | | | | | | |
|------------|------------|------------|S-----------||
|----------1-|0-----------|----------3-|3-----------||
|2-------2---|------0-2-0-|2-------2---|2-----------||
|--2---2-----|------------|--0---------|0-----------||
|----0-------|----2-------|----0-------|0-----------||
|------------|--3---------|------2-----|------------||

End of Part A.

Part B
| | | | | | | | | | | |
|3p0---------|--------0---|--------0---|------------|
|1---1-------|----1h3-----|3-----------|3-----------|
|2-------2---|------------|2-----------|----2-------|
|2-----------|2-----------|0-----------|--------4-4/|
|S-----------|------------|------------|------------|
|------------|------------|------------|------------|

| | | | | | | | | | | |
|------------|------5-----|3p0---------|--------0---|
|--------3---|----5---5---|1---1-------|----1h3-----|
|--5p4----4--|--7-------7-|2-------2---|------------|
|5-----5---5-|7-----------|2-----------|2-----------|
|------------|5-----------|S-----------|------------|
|------------|------------|------------|------------|
|3-| CV C0

| | | | | | | | | | | |
|--------0---|------------|------------|------------||
|3-----------|3-----------|------0-----|------------||
|2-----------|----2-------|-----0--2p0-|0h2-----2---||
|0-----------|--------0---|2---2-------|---2--2---2-||
|------------|------------|--2---------|0---0-------||
|------------|------------|0-----------|------------||
|3-| |3-|


 
»
Tvoje obľúbené položky
Tvoje obľúbené položky
»
Najnovšie videá
Najnovšie videá

»
Tvoje obľúbené piesne
Tvoje obľúbené piesne
»
Najnavštevovanejšie piesne
Najnavštevovanejšie piesne
»
Nové albumy interpreta
Nové albumy interpreta



home | interpreti | register piesní | cd & dvd shop | pripomienky/nápady | kontakt | ochrana údajov | inzercia