Krucipüsk


piesne (47)

  texty (36)
  akordy (6)
  taby (9)
  preklady (0)


články (83)
Fotky (20)
diskusia
videá
diskografia
v obchode
odkazy
koncerty
sťahuj



pridaj vlastný článok

Krucipüsk:
FOTOGALERIE: Krucipüsk rozpálil Ledárny - Na letní scéně Lucerna Music Baru v Braníku se tentokrát ukázal liberecký Krucipü... - musicserver.cz


Gaia Mesiah:
Rockový Slunovrat má nový termín, přivítá Krucipüsk, Gaia Mesiah nebo
United Flavour
- Restrikce týkající se pořádání kulturních akcí se konečně ubírají tím sprá... - IREPORT


Krucipüsk:
Rockový Slunovrat se opírá o české klubovky, přivítá United Flavour,
Skyline, Krucipüsk nebo Gaiu Mesiah
- Rockový Slunovrat otevře své brány už 13. srpna. Během dvou dnů přivítá Lesní ... - IREPORT


Krucipüsk:
Krucipusk přesouvá oslavu 30 let - 16. 3. 2020 | Standa Rubáš zpět na výpis Oslava 30 let skupiny Krucypusk bude!!! Je... - radiobeat.cz


Krucipüsk:
Krucipusk s novým klipem - 17. 3. 2020 | Standa Rubáš zpět na výpis Skupina Krucipusk musela přesunout oslavu... - radiobeat.cz


Krucipüsk:
Krucipüsk představil v Českých Budějovicích nové album Country Hell - ireport.cz


Krucipüsk:
Krucipüsk oslaví třicetiny koncertem ve Foru Karlín - novinky.cz


Krucipüsk:
Krucipüsk strhl fanoušky v Českých Budějovicích - ireport.cz


Krucipüsk:
Krucipüsk na albu "Sine Amore Nihil" už zase dělají pořádný bordel - musicserver.cz


Krucipüsk:
Na státní svátek řádili v plzeňské Šeříkovce Krucipüsk - ireport.cz


 

Krucipüsk

Fanúšikov: 1



A B C Č D E F G H CH I J K L Ľ M N O P Q R S Š T U V W X Y Z Ž



ako:
Krucipüsk - Druide
Krucipüsk - Druide

tlač

edituj
Rok vzniku: 2004
Pesničku videlo 12622 návštevníkov.

Kvalita tabov : bez hodnotenia
Hodnotilo ľudí: 0 ohodnoť aj ty
Autor hudby: Krucipusk

Ladění Drop D

Intro (sloka) 2x
E||--------5--------3--------|--3--1--------1-----------|
B||-----------3--------------|-----------3--------------|
G||-----2-----------------2--|--------2--------------2--|
D||--0-----------0-----0-----|--------------------0-----|
A||--------------------------|--------------------------|
D||--------------------------|--------------------------|

--1---------------1----|
-----1------------1----|
--------2---------2----|
------------------0----|
-----------------------|
-----------------------|


Refrén 2x
------------------------------------------|
------------------------------------------|
------------------------------------------|
--5h--6--0-----5h--6p--0-----x--3s--5-----|
--5h--6--0-----5h--6---0-----x--3s--5-----|
--5h--6--0-----5---6---0-----x--3s--5-----|


------------------------------------------|
------------------------------------------|
------------------------------------------|
--5h--6--0-----5h--6p--5-----x--5s--6-----|
--5h--6--0-----5h--6---5-----x--5s--6-----|
--5h--6--0-----5---6---5-----x--5s--6-----|


------------------------------------------|
------------------------------------------|
------------------------------------------|
--5h--6--0-----5h--6p--0-----x--3s--5-----|
--5h--6--0-----5h--6---0-----x--3s--5-----|
--5h--6--0-----5---6---0-----x--3s--5-----|


------------------------------------------|
------------------------------------------|
------------------------------------------|
--5h--6--0--------------------------------|
--5h--6--0--------------------------------|
--5---6--0-----5s--6--5--3--5--3--<>3~----|


Bridge
1. část
------------------------------------------------|-----|-------||
---------------------------------------8--------|-----|-------||
--5h--7--7--5--7~----5--7~----5--7--5-----------|-----|-------||
------------------------------------------5~----|-----|-------||
------------------------------------------------|-----|-------||
------------------------------------------------|-----|-------||

2.část
------------------------------------------------||
------------------------------------------------||
------------------------------------------------||
---------------------------------------6--------||
--3s--5--5--3--5~----3--5~----3--5--3-----------||
--0------------------0--------------------3~----||



 
»
Tvoje obľúbené položky
Tvoje obľúbené položky
»
Najnovšie videá
Najnovšie videá

»
Tvoje obľúbené piesne
Tvoje obľúbené piesne
»
Najnavštevovanejšie piesne
Najnavštevovanejšie piesne
Belzebub Disko - text

Hey! stará votevři - text

Láska je kurva - akordy a text

Rock\'n\'roll to neni ....! - akordy a text

Keltskej osud 2 - taby

Pogo - text

Keltskej osud - akordy a text

Láska je kurva - taby

Druide - taby

Cirkus dneska nebude - akordy

Belzebub Disco! - akordy

Musim do Mexika - akordy a text

Keltskej osud - text

C\'est la mort - text

May Day! - taby

El torro - text

Ratata - text

Bič - text

Valibuch - text

Wampwaltz - text

viac

»
Nové albumy interpreta
Nové albumy interpreta



home | interpreti | register piesní | cd & dvd shop | pripomienky/nápady | kontakt | ochrana údajov | inzercia