Krucipüsk


piesne (47)

  texty (36)
  akordy (6)
  taby (9)
  preklady (0)


články (83)
Fotky (20)
diskusia
videá
diskografia
v obchode
odkazy
koncerty
sťahuj



pridaj vlastný článok

Krucipüsk:
FOTOGALERIE: Krucipüsk rozpálil Ledárny - Na letní scéně Lucerna Music Baru v Braníku se tentokrát ukázal liberecký Krucipü... - musicserver.cz


Gaia Mesiah:
Rockový Slunovrat má nový termín, přivítá Krucipüsk, Gaia Mesiah nebo
United Flavour
- Restrikce týkající se pořádání kulturních akcí se konečně ubírají tím sprá... - IREPORT


Krucipüsk:
Rockový Slunovrat se opírá o české klubovky, přivítá United Flavour,
Skyline, Krucipüsk nebo Gaiu Mesiah
- Rockový Slunovrat otevře své brány už 13. srpna. Během dvou dnů přivítá Lesní ... - IREPORT


Krucipüsk:
Krucipusk přesouvá oslavu 30 let - 16. 3. 2020 | Standa Rubáš zpět na výpis Oslava 30 let skupiny Krucypusk bude!!! Je... - radiobeat.cz


Krucipüsk:
Krucipusk s novým klipem - 17. 3. 2020 | Standa Rubáš zpět na výpis Skupina Krucipusk musela přesunout oslavu... - radiobeat.cz


Krucipüsk:
Krucipüsk představil v Českých Budějovicích nové album Country Hell - ireport.cz


Krucipüsk:
Krucipüsk oslaví třicetiny koncertem ve Foru Karlín - novinky.cz


Krucipüsk:
Krucipüsk strhl fanoušky v Českých Budějovicích - ireport.cz


Krucipüsk:
Krucipüsk na albu "Sine Amore Nihil" už zase dělají pořádný bordel - musicserver.cz


Krucipüsk:
Na státní svátek řádili v plzeňské Šeříkovce Krucipüsk - ireport.cz


 

Krucipüsk

Fanúšikov: 1



A B C Č D E F G H CH I J K L Ľ M N O P Q R S Š T U V W X Y Z Ž



ako:
Krucipüsk - Keltskej osud 2
Krucipüsk - Keltskej osud 2

tlač

edituj
Pesničku videlo 6578 návštevníkov.

Kvalita tabov :
Hodnotilo ľudí: 1 ohodnoť aj ty
Ladění: Drop D


Intro & Ref(clean) 4x
E||--------------------------|--------------------------|

H||--------------------------|--------------------------|

G||-------9------------------|-----------4--------------|

D||---------9---------5----7-|-------5----------5-------|

A||----7-----------5---------|----3----------------3----|

D||-7----------5-------------|-3----------------------5-|



Riff (lead)

E||--------------------------|--------------------------|

H||--------------------------|--------------------------|

G||--------------------------|--------------------------|

D||-12---0----0----0---------|-12---0----0----0---------|

A||-12---0----0----0---------|-12---0----0----0---------|

D||-12---0----0----0---------|-12---0----0----0---------|





E||--------------------------|--------------------------|

H||--------------------------|--------------------------|

G||--------------------------|--------------------------|

D||-13---0----0----0---------|-13---0----0----0---------|

A||-13---0----0----0---------|-13---0----0----0---------|

D||-13---0----0----0---------|-13---0----0----0----x--x-|




E||--------------------------|--------------------------|

H||--------------------------|--------------------------|

G||--------------------------|--------------------------|

D||-1----0----0----0---------|-1----0----0----0---------|

A||-1----0----0----0---------|-1----0----0----0---------|

D||-1----0----0----0---------|-1----0----0----0----x--x-|





E||--------------------------|--------------------------|

H||--------------------------|--------------------------|

G||--------------------------|--------------------------|

D||-1----0----0----0---------|-1----0----0----0---------|

A||-1----0----0----0---------|-1----0----0----0---------|

D||-1----0----0----0---------|-1----0----0----0----x--x-|

Pozn.: v refrénu se hraje to samé jako v intru,zbytek snad odposloucháte:-)


 
»
Tvoje obľúbené položky
Tvoje obľúbené položky
»
Najnovšie videá
Najnovšie videá

»
Tvoje obľúbené piesne
Tvoje obľúbené piesne
»
Najnavštevovanejšie piesne
Najnavštevovanejšie piesne
Belzebub Disko - text

Hey! stará votevři - text

Láska je kurva - akordy a text

Rock\'n\'roll to neni ....! - akordy a text

Keltskej osud 2 - taby

Pogo - text

Keltskej osud - akordy a text

Láska je kurva - taby

Druide - taby

Cirkus dneska nebude - akordy

Belzebub Disco! - akordy

Musim do Mexika - akordy a text

Keltskej osud - text

C\'est la mort - text

May Day! - taby

El torro - text

Ratata - text

Bič - text

Valibuch - text

Wampwaltz - text

viac

»
Nové albumy interpreta
Nové albumy interpreta



home | interpreti | register piesní | cd & dvd shop | pripomienky/nápady | kontakt | ochrana údajov | inzercia