Acornhoek


piesne (4)

  texty (2)
  akordy (0)
  taby (2)
  preklady (0)


články (0)
Fotky (10)
diskusia
videá
diskografia
v obchode
odkazy
koncerty
sťahuj



pridaj vlastný článok




 

Acornhoek

Fanúšikov: 0



A B C Č D E F G H CH I J K L Ľ M N O P Q R S Š T U V W X Y Z Ž



ako:
Acornhoek - Zaibery
Acornhoek - Zaibery

tlač

edituj
Pesničku videlo 3565 návštevníkov.

Kvalita tabov : bez hodnotenia
Hodnotilo ľudí: 0 ohodnoť aj ty

Acornhoek - Zaibery



Riff 1:

e |---------------------------------------------------|
H |---------------------------------------------------|
G |---------------------------------------------------| x3
D |-3-3--3-3-6-6--5-5--3-3----3-3--3-3-6-6-5-5-5-3-3--|
A |-3-3--3-3-6-6--5-5--3-3----3-3--3-3-6-6-5-5-5-3-3--|
E |-1-1--1-1-4-4--3-3--1-1----1-1--1-1-4-4-3-3-3-1-1--|

Refren:

e |----------------------------------------------------|
H |----------------------------------------------------|
G |-5-5-5-5-5/8-8-8-8-8/10-10-10-10-10/12-12-12-12-12--|
D |-5-5-5-5-5/8-8-8-8-8/10-10-10-10-10/12-12-12-12-12--|
A |-3-3-3-3-3/6-6-6-6-6/8--8--8--8--8-/10-10-10-10-10--|
E |----------------------------------------------------|

Riff 1:

e |---------------------------------------------------|
H |---------------------------------------------------|
G |---------------------------------------------------| x3
D |-3-3--3-3-6-6--5-5--3-3----3-3--3-3-6-6-5-5-5-3-3--|
A |-3-3--3-3-6-6--5-5--3-3----3-3--3-3-6-6-5-5-5-3-3--|
E |-1-1--1-1-4-4--3-3--1-1----1-1--1-1-4-4-3-3-3-1-1--|

Refren:

e |----------------------------------------------------|
H |----------------------------------------------------|
G |-5-5-5-5-5/8-8-8-8-8/10-10-10-10-10/12-12-12-12-12--|
D |-5-5-5-5-5/8-8-8-8-8/10-10-10-10-10/12-12-12-12-12--|
A |-3-3-3-3-3/6-6-6-6-6/8--8--8--8--8-/10-10-10-10-10--|
E |----------------------------------------------------|

Riff 2:

e |------------------------------|
H |------------------------------|
G |------------------------------| x8
D |-7-7--7-7---7---6-6--6-6---6--|
A |-7-7--7-7---7---6-6--6-6---6--|
E |-5-5--5-5---5---4-4--4-4---4--|

Riff 1:

e |---------------------------------------------------|
H |---------------------------------------------------|
G |---------------------------------------------------|
D |-3-3--3-3-6-6--5-5--3-3----3-3--3-3-6-6-5-5-5-3-3--|
A |-3-3--3-3-6-6--5-5--3-3----3-3--3-3-6-6-5-5-5-3-3--|
E |-1-1--1-1-4-4--3-3--1-1----1-1--1-1-4-4-3-3-3-1-1--|

Refren:

e |----------------------------------------------------|
H |----------------------------------------------------|
G |-5-5-5-5-5/8-8-8-8-8/10-10-10-10-10/12-12-12-12-12--| x4
D |-5-5-5-5-5/8-8-8-8-8/10-10-10-10-10/12-12-12-12-12--|
A |-3-3-3-3-3/6-6-6-6-6/8--8--8--8--8-/10-10-10-10-10--|
E |----------------------------------------------------|

Riff 1:

e |---------------------------------------------------|
H |---------------------------------------------------|
G |---------------------------------------------------|
D |-3-3--3-3-6-6--5-5--3-3----3-3--3-3-6-6-5-5-5-3-3--|
A |-3-3--3-3-6-6--5-5--3-3----3-3--3-3-6-6-5-5-5-3-3--|
E |-1-1--1-1-4-4--3-3--1-1----1-1--1-1-4-4-3-3-3-1-1--|

Bruno Kobliha (www.smrtzkanalu.szm.sk, smrtzkanalu@szm.sk, brano13@centrum.sk)

 
»
Tvoje obľúbené položky
Tvoje obľúbené položky
»
Najnovšie videá
Najnovšie videá

»
Tvoje obľúbené piesne
Tvoje obľúbené piesne
»
Najnavštevovanejšie piesne
Najnavštevovanejšie piesne
Old, too old - text

Zaibery - taby

Perla Negra - taby

Zaibery - text

»
Nové albumy interpreta
Nové albumy interpreta



home | interpreti | register piesní | cd & dvd shop | pripomienky/nápady | kontakt | ochrana údajov | inzercia