Acornhoek


piesne (4)

  texty (2)
  akordy (0)
  taby (2)
  preklady (0)


články (0)
Fotky (10)
diskusia
videá
diskografia
v obchode
odkazy
koncerty
sťahuj



pridaj vlastný článok




 

Acornhoek

Fanúšikov: 0



A B C Č D E F G H CH I J K L Ľ M N O P Q R S Š T U V W X Y Z Ž



ako:
Acornhoek - Perla Negra
Acornhoek - Perla Negra

tlač

edituj
Pesničku videlo 3231 návštevníkov.

Kvalita tabov : bez hodnotenia
Hodnotilo ľudí: 0 ohodnoť aj ty

Riff:

e |---------------------|
H |---------------------|
G |-7-7-----------------| x8
D |-7-7--8-8--5-5--7-5--|
A |-5-5--8-8--5-5--7-5--|
E |------6-6--3-3--5-3--|

Refren:

e |-------------------------------------|
H |-------------------------------------|
G |-7-7-7-7-----------------------------| x4
D |-7-7-7-7--8-8-8-8--5-5-5-5--7-7-7-7--|
A |-5-5-5-5--8-8-8-8--5-5-5-5--7-7-7-7--|
E |----------6-6-6-6--3-3-3-3--5-5-5-5--|

e |--------------|
H |--------------|
G |--------------| x3
D |-5/7-7-7-7-7--|
A |-5/7-7-7-7-7--|
E |-3/5-5-5-5-5--|

Riff:

e |---------------------|
H |---------------------|
G |-7-7-----------------| x8
D |-7-7--8-8--5-5--7-5--|
A |-5-5--8-8--5-5--7-5--|
E |------6-6--3-3--5-3--|

Refren:

e |-------------------------------------|
H |-------------------------------------|
G |-7-7-7-7-----------------------------| x4
D |-7-7-7-7--8-8-8-8--5-5-5-5--7-7-7-7--|
A |-5-5-5-5--8-8-8-8--5-5-5-5--7-7-7-7--|
E |----------6-6-6-6--3-3-3-3--5-5-5-5--|

e |--------------|
H |--------------|
G |--------------| x3
D |-5/7-7-7-7-7--|
A |-5/7-7-7-7-7--|
E |-3/5-5-5-5-5--|



e |---------------------|
H |---------------------|
G |-7-7-----------------|
D |-7-7--8-8--5-5--7-5--|
A |-5-5--8-8--5-5--7-5--|
E |------6-6--3-3--5-3--|

Solo:

e |---------------------|
H |---------------------|
G |-7-7-----------------| x8
D |-7-7--8-8--5-5--7-5--|
A |-5-5--8-8--5-5--7-5--|
E |------6-6--3-3--5-3--|

Refren:

e |-------------------------------------|
H |-------------------------------------|
G |-7-7-7-7-----------------------------| x4
D |-7-7-7-7--8-8-8-8--5-5-5-5--7-7-7-7--|
A |-5-5-5-5--8-8-8-8--5-5-5-5--7-7-7-7--|
E |----------6-6-6-6--3-3-3-3--5-5-5-5--|

e |--------------|
H |--------------|
G |--------------| x4
D |-5/7-7-7-7-7--|
A |-5/7-7-7-7-7--|
E |-3/5-5-5-5-5--|

Bruno Kobliha (www.smrtzkanalu.szm.sk, smrtzkanalu@szm.sk, brano13@centrum.sk)

 
»
Tvoje obľúbené položky
Tvoje obľúbené položky
»
Najnovšie videá
Najnovšie videá

»
Tvoje obľúbené piesne
Tvoje obľúbené piesne
»
Najnavštevovanejšie piesne
Najnavštevovanejšie piesne
Old, too old - text

Zaibery - taby

Perla Negra - taby

Zaibery - text

»
Nové albumy interpreta
Nové albumy interpreta



home | interpreti | register piesní | cd & dvd shop | pripomienky/nápady | kontakt | ochrana údajov | inzercia