Čad

piesne (27)

  texty () / preklady ()
  akordy () / taby ()
  noty () / slideshow ()

články (0)
fotogaléria
diskusia
videá
diskografia
v obchode
odkazy
koncerty
sťahuj



 

Čad

Fanúšikov: 0



A B C Č D E F G H CH I J K L Ľ M N O P Q R S Š T U V W X Y Z Ž



ako:
Čad - Na to si tu!
Čad - Na to si tu!

tlač

edituj
Pesničku videlo 1463 návštevníkov.

Kvalita tabov : bez hodnotenia
Hodnotilo ľudí: 0 ohodnoť aj ty
Autor hudby: Čad
Tuning: B standard (BEADF#B)

Intro Riff:
A ----5-7------5-7b------5-7p5------5-7--
E 5-7------5-7-------5-7--------5-7------

Intro:
D --------------5---------------------------------
A ----5-7--7--7---7-5-7-5-------------------------
E 5-7----------------------8--5--5-5--8--5--5-5--7
B -------------------------6--3--3-3--6--3--3-3--5

Verse:
E 7--7-7-7-7-7-7--8--5--5-5--8--5--5-5
B 5--5-5-5-5-5-5--6--3--3-3--6--3--3-3

Chorus:
E 6--6-6-6-6-6-5--5-5-5-5-5-8--5---5-5-5-5-5-7-5
B 4--4-4-4-4-4-3--3-3-3-3-3-6--3---3-3-3-3-3-6-3

 
»
Tvoje obľúbené položky
Tvoje obľúbené položky
»
Najnovšie videá
Najnovšie videá

»
Tvoje obľúbené piesne
Tvoje obľúbené piesne
»
Najnavštevovanejšie piesne
Najnavštevovanejšie piesne
»
Nové albumy interpreta
Nové albumy interpreta



home | interpreti | register piesní | cd & dvd shop | pripomienky/nápady | kontakt | ochrana údajov | inzercia