Čad


piesne (27)

  texty (21)
  akordy (0)
  taby (6)
  preklady (0)


články (13)
Fotky (1)
diskusia
videá
diskografia
v obchode
odkazy
koncerty
sťahuj



pridaj vlastný článok

Čad:
Hentai Corporation a Čad na podzim opět spojí dvě rozdělené republiky - Nejen nad Tatrou sa bude blýskat a hromy divo biť, ale též v krajinách praotce Čech... - musicserver.cz


Čad:
Čehúni a Čoboláci tour – HENTAI CORPORATION a ČAD na podzim zas spojí
dvě rozdělené republiky
- Obscuro.cz | Metalové novinky a obscurnosti Obscuro.cz | Metalové novinky a obscurnost... - obscuro.cz


BRUTALLY DECEASED:
Prahu čeká koncem června metalový mini-festival - Metalová koncertní sezóna obnovena! Poslední červnovou neděli se v pražské Modré...


Amc Trio:
Nominácie Radio_Head Awards 2019 - Redakcia / 10.02.2020 08:54 Nominácie Radio_Head Awards 2019 Počúvaj domácu hudbu... - radiohlavy.sk


Čad:
Opeth zverejnili ďalšiu skladbu v dvoch verziách. čad a Catastrofy nahrali
spoločnú pieseň
- valhalla.sk


ACID FORCE:
Metaloví Bastardi to riadne roztočili v Riderse - rocker.sk


Akercocke:
Týždeň v hard & heavy: Čad získal rádiohlavu za Bastardov - zoznam.sk


Bad Karma Boy:
Udeľovanie Radio_Head Awards ovládli Fallgrapp


Čad:
Hromová muzika valcuje - sme.sk


Čad:
Metalista Pišta Vandal: Na pláži nosím tričko Iron Maiden - sme.sk


 

Čad

Fanúšikov: 0



A B C Č D E F G H CH I J K L Ľ M N O P Q R S Š T U V W X Y Z Ž



ako:
Čad - Na zlej strane
Čad - Na zlej strane

tlač

edituj
Pesničku videlo 1912 návštevníkov.

Kvalita tabov : bez hodnotenia
Hodnotilo ľudí: 0 ohodnoť aj ty
Autor hudby: Čad
Tuning: B standard (BEADF#B)

Intro:
A --------------3--------------------------------6
E 5-35--35-35-------4b5555r4444b5555r444---------4
B -4---4---4--------------------------------------

Verse:
B -------------------------------6---3
F# -------------------------------6---3
D -------------------------------6---3
A 7---7-7-7-7-7-7-10-8-10------6-6-3-3
E 5---5-5-5-5-5-5-8--6-8-------4---1--

Pre Chorus:
D ----5---8-
A 6-7-3-7-6-
E 4-5---5---

Chorus:
A 7...-9...-7...--3...--6...--
E 5...-8...-5...--1...--4...--

Bridge:
E 5--5--5--5--6666
B -00-00-00-00----

Riff
D ------------------5-7-5------------------------
A --------------5-7-------6b5-----6666b5---------
E 5-7-8-5-7-8-8---------------8---------8---7-8-5

 
»
Tvoje obľúbené položky
Tvoje obľúbené položky
»
Najnovšie videá
Najnovšie videá

»
Tvoje obľúbené piesne
Tvoje obľúbené piesne
»
Najnavštevovanejšie piesne
Najnavštevovanejšie piesne
»
Nové albumy interpreta
Nové albumy interpreta



home | interpreti | register piesní | cd & dvd shop | pripomienky/nápady | kontakt | ochrana údajov | inzercia