Arakain


piesne (280)

  texty (212)
  akordy (37)
  taby (57)
  preklady (0)


články (243)
Fotky (46)
diskusia
videá
diskografia
v obchode
odkazy
koncerty
sťahuj



pridaj vlastný článok

Arakain:
Festival Benátská! s Impulsem představí to nejlepší z české a slovenské
hudební scény
- Benátská! s Impulsem, festival odehrávající se pod Ještědem, se vrací po dvoulet... - spark


Arakain:
Další známá jména, program Benátské! s Impulsem tradičně cílí i na
mladé
- Festival Benátská! s Impulsem, který se vrací po dvouleté vynucené pauze, nabídne ... - musicserver.cz


Arakain:
ARAKAIN vrátil do hry dvojku „Schizofrenie“ - Jak je známo, letos proběhne oslava 40 let existence kapely, a s tím je spojená i ree... - spark


Arakain:
Na ČESKOSLOVENSKÝ Rockfest 2022 míří Arakain, Lucie Bílá i Tublatanka - Na brněnském výstavišti bude 3. a 4. června znít rocková a metalová hudba na Čes... - idnes.cz


Arakain:
RECENZE: Album 'Thrash The Thrash' od Arakainu se i po desítkách let může
honosit nálepkou legendární
- Ze supraphonské pokladnice se koncem loňského roku k rukám posluchačů vinylů dosta... - musicserver.cz


Arakain:
ALEŠ BRICHTA Ztráty a nálezy - Ztráty, nálezy, křivky, podpásovky Dnes dvaašedesátiletý zpěvák Aleš Brichta, j... - rockandpop.cz


Arakain:
RECENZE: Aleš Brichta ve svých pamětech vypouští žluč a okopává
kotníky
- Bývalý frontman kapely Arakain Aleš Brichta si v knižní autobiografii Ztráty a nál... - idnes.cz


Arakain:
ROZHOVOR | Jiří Urban (Arakain): Nikdy jsme nebyli kapelou protestsongů,
přestože náš postoj k režimu byl dostatečně znám
- Arakain v letošním roce oslaví čtyřicet let na scéně. Jako předčasný dárek si ... - IREPORT


Arakain:
Debut kapely Arakain vyšel v reedici a znovu se skvěle prodává - Šestiprstá pěst prorážející silný ocelový plát s vytepaným logem Arakain. Krva... - idnes.cz


Arakain:
ARAKAIN se pouští do oslav čtyřicítky - Česká metalová legenda ARAKAIN zasvětí rok 2022 oslavám 40 let na scéně, které v... - spark


 

Arakain

Fanúšikov: 3



A B C Č D E F G H CH I J K L Ľ M N O P Q R S Š T U V W X Y Z Ž



ako:
Arakain - Apage Satanas
Arakain - Apage Satanas

tlač

edituj
Rok vzniku: 2006
Pesničku videlo 29180 návštevníkov.

Kvalita tabov :
Hodnotilo ľudí: 3 ohodnoť aj ty
  *** Autor textu: Aleš Brichta *** Autor hudby: Ji?í Urban

*********************************************************************
****** ARAKAIN – Apage Satanas *************(z alba: Apage Satanas)**
*********************************************************************
** Hudba: Jiří Urban ****
** Text: Aleš Brichta **

Vytvoření: 26.1.2004
Email: martinpavlicek@volny.cz

Guitar 1/2 step down!!!


Riff 1 (x4) clean
E(--------------------------------------------------------------------------)
B(--------------------------------------------------------------------------)
G(-----0-------0--------0----<12>--------------0-------0-------0---<7>------)
D(---9-------7--------9-----------9----------2-------5-------4---------4----)
A(-------7-9-----9-10-----10--------10~0h2p3-----3-7-----7-5-----5-------5--)
E(-0------------------------------------------------------------------------)

Riff 2 clean
E(-------------------------<12>-----------------------------0~--------------)
B(-----------------------------<12>-------------------------3~--------------)
G(-----0-----0---0-------0---------<12>---------0-----0---0-2~--------------)
D(---2-----0-----------2---------------<12>---2-----0-------0~--------------)
A(-3-----2-----0-----2----------------------3-----2-----0---0~--------------)
E(-----------------0--------------------------------------------------------)

Riff 1 (x2)
Riff 2

Chorus (x2) Dist.
E(---------------------------------------------------------------------------------------)
B(---------------------------------------------------------------------------------------)
G(----9-9--------11-12---------9-9---------12-11/14-11-9-9--------11-12-----9-9-7-7-7-5--)
D(-X\-9-9--------11-12---------9-9---------12-11/14-11-9-9--------11-12-----9-9-7-7-7-5--)
A(-X\-7-7-7-7-7-7-9-10-7-7-7-7-7-7-7-7-7-7-10--9/12--9-7-7-7-7-7-7-9-10-7-7-7-7-5-5-5-3--)
E(---------------------------------------------------------------------------------------)
P.M. . . . . . . . . . . . . . . . . . .

Riff 3 (x2) Dist.
E(---------------------------------------)
B(---------------------------------------)
G(---------------------5-9-9-7~----------)
D(-2-4-4-5~------------5-9-9-7~----------)
A(-2-4-4-5~------------3-7-7-5~-5-5-5-5--)
E(-0-2-2-3~-3-3-333333-------------------)
P.M. . . ...... . . . .

Riff 4
E(-----------------------------------------)
B(-----------------------------------------)
G(-5-4-2-----------------------------------)
D(-5-4-2-2---------------5-4-9-7-77777777--)
A(-3-2-0-2---------------3-2-7-5-55555555--)
E(-------0-0-00000000000-------------------)
P.M. . ...........

Chorus (x2)
Solo - ???
Riff 3 (x2)
Riff 4
Chorus (x4)
Riff 1 (xX) clean

End.

********************************************
********************************************
Bůh jak se zdá
má novej cíl
říká si o svatozář
dál nosí knír

Zkouší tě zmást
zkouší zmást

Z billboardů znáš
svět klidnejch sil
míhaj se okolo nás
a měněj styl

Zkouší tě zmást
zkouší zmást

Skrývá je
svoje rohy
dál káže
Apage Satanas
Hlídá je
svoje rohy
sám ďábel
Apage Satanas

Tisknout si odpustky dá
zvedne kříž a kasu v druhý ruce
kdo zná se upálit má
jako symbol další revoluce

Zkouší tě zmást
zkouší zmást

Skrývá je...

Jedenáct je přikázání
deset znáš a lhát tě právě učí
dvanáctý je o poznání
kdo je ten co do duše ti hučí

Zkouší tě zmást
zkouší zmást

Skrývá je...

Kyrie Eleison, Kyrie Eleison...

********************************************
********************************************






 
»
Tvoje obľúbené položky
Tvoje obľúbené položky
»
Najnovšie videá
Najnovšie videá

»
Tvoje obľúbené piesne
Tvoje obľúbené piesne
»
Najnavštevovanejšie piesne
Najnavštevovanejšie piesne
Žít Svůj Sen - akordy a text

Slečna závist - akordy a text

Ztráty a nálezy - akordy a text

Žít svůj sen - akordy a text

Zimní Královna - akordy a text

Chtěl Bych Ti Říct - akordy a text

Nikotin - text

Apage Satanas - taby

Ztráty a nálezy (komplet) - taby

S.O.S - text

Zimní královna - akordy

Apage Satanas - akordy a text

Forrest Gump - akordy a text

Orion - text

Antikrist - text

Proč - text

Vstávej - text

Ztráty a Nálezy 2 - akordy

Dál, dál se ptej - akordy a text

Zimní královna (správně !!!) - taby

viac

»
Nové albumy interpreta
Nové albumy interpreta



home | interpreti | register piesní | cd & dvd shop | pripomienky/nápady | kontakt | ochrana údajov | inzercia