Arakain


piesne (280)

  texty (212)
  akordy (37)
  taby (57)
  preklady (0)


články (243)
Fotky (46)
diskusia
videá
diskografia
v obchode
odkazy
koncerty
sťahuj



pridaj vlastný článok

Arakain:
Na koncerty už nechodím. Pak musím vždy něco opravit, říká legenda rocku - Rudolf Rožďalovský patří k legendám zdejšího rocku. Za komunistů zakládal kapel... - idnes.cz


Arakain:
ROZHOVOR | Jiří Urban (Arakain): Název Respiratour je smutným odrazem
reality v nadsázce slovní hříčky
- Situace kolem koronaviru změnila plány mnohým muzikantům. Nejinak tomu bylo u kapely ... - IREPORT


Arakain:
ARAKAIN: „Thrash the Trash“ na exkluzivním tričku - Československo dýchalo první rok bez rdoušení prackami totalitního režimu a čerst... - spark


Arakain:
ROZHOVOR | Arakain: Byli jsme samá stížnost a zákaz. Kdo ví, co by bylo bez
revoluce, říká Urban
- Koncertní pauza vybízí k rozhovorům, muzikanti mají čas se zastavit a bilancovat. S... - IREPORT


Arakain:
10 desek - 10 nejoblíbenějších desek Jiřího Urbana - Kytarista Jiří Urban je zakládající a nejdéle hrající člen skupiny Arakain. S Ar...


Arakain:
Koncerty nám zrušili, zavzpomínejme na Rockový Majáles - Oblíbený festival proběhl 19. - 20. zaří 2020 proběhl v Bystřici nad Pernštejnem ... - spark


Arakain:
Smutný den pro pražské rockery. Dnes se zavře legendární žižkovský klub
Kain
- Dvacet let se scházeli milovníci tvrdých kytarových riffů v Rock Club Kain v Husits... - blesk.cz


Arakain:
Arakain v červnu a červenci vyrazí na letní parkety - Aktualizace: 02.06.2020 10:07 Vydáno: 02.06.2020, 10:07 foto Ilustrační foto - Skupi... - ceskenoviny.cz


Arakain:
Lucie Bílá kedysi a dnes: Aha, ako dospela do krásy - Lucie Bílá Lucie Bílá Zdroj: Ján Zemiar, pred 12 hodinami PRAHA - Dnes ni... - topky.sk


Arakain:
Dymytry obdrželi v O2 universu Platinovou desku z rukou Jiřího Urbana
staršího z Arakainu
- ireport.cz


 

Arakain

Fanúšikov: 3



A B C Č D E F G H CH I J K L Ľ M N O P Q R S Š T U V W X Y Z Ž



ako:
Arakain - Ztráty a nálezy (komplet)
Arakain - Ztráty a nálezy (komplet)

tlač

edituj
Pesničku videlo 27309 návštevníkov.

Kvalita tabov :
Hodnotilo ľudí: 4 ohodnoť aj ty
  *** Autor textu: A. Brichta *** Autor hudby: M. Podskalský

Ztraty a nalezy
Arakain (86) - Arakain 15 vol.1
transkripce L. Zadrapa

Tempo=70
4/4

Intro
Riff 1 (=sloka) / cisty zvuk
Gt. I

_3_ _3_ _3_ _3_ _3_ _3_ _3_ _3_
/ / / / / / / / / / / / / / / / / / / / / / / /
|-------0-----------0-----|--------0-----------0-----|
|-----6---6-------6---6---|------8---8-------5---5---|
|---7-------7---7-------7-|----9-------9---6-------6-| 4x
|-0-----------8-----------|-10-----------7-----------| (po 3,4te
|-------------------------|--------------------------| s basou)
|-------------------------|--------------------------|

Solo
Gt. I distortion

1 2 3 4 1 2 3 4
|--------------------------|----------------------------|
|--------------------------|----------------------------|
|--------------------------|-11---11--11-11/13br-131311-|
|-11--1414p13---11--111314-|--------14------------------|
|------------14------------|----------------------------|
|--------------------------|----------------------------|
| | |
|Gt. II/w | |
|--------------------------|----------------------------|
|--------------------------|----------------------------|
|-7------------------------|-5--------------------------|
|-7-------------8---8-8-8--|-5-----------7-------7-7-7--|
|-5-------------8---8-8-8--|-3-----------7-------7-7-7--|
|---------------6---6-6-6--|-------------5-------5-5-5--|
..... .....


1 2 3 4 1 2 3 4
|--------------------------|----------------------------|
|--------------------------|----------------------------|
|--------------------------|-11---1111---------------11-|
|-11--1414p13---11--111314-|----------14-13------1314---|
|------------14------------|----------------------------|
|--------------------------|----------------------------|
| | |
| | |
|--------------------------|----------------------------|
|--------------------------|----------------------------|
|-7------------------------|-5--------------------------|
|-7-------------8---8-8-8--|-5-----------7-------7-7-7--|
|-5-------------8---8-8-8--|-3-----------7-------7-7-7--|
|---------------6---6-6-6--|-------------5-------5-5-5--|
..... .....

1 2 3 4 1 2 3 4
|-----------------------|----------------------------|
|-----------------------|----------------------------|
|-13br-13br-14br--------|-11---1111------------------|
|-----------------------|----------14-13-------------|
|-----------------------|----------------------------|
|-----------------------|----------------------------|
| | |
| | |
|-----------------------|----------------------------|
|-----------------------|----------------------------|
|-7---------------------|-5--------------------------|
|-7---------8----8-8-8--|-5-----------7-------7-7-7--|
|-5---------8----8-8-8--|-3-----------7-------7-7-7--|
|-----------6----6-6-6--|-------------5-------5-5-5--|
..... .....


1 2 3 4 1 2 3 4 1
|----------------------------|----------------------------|---------
|----------------------------|-11b---11br-----------------|---------
|-----------------13br-------|----------------------------|---------
|-141413---111314------------|--------------11------------|-(11)fade
|-------14-------------------|----------------------------|---------
|----------------------------|----------------------------|---------
| | |
| | |
|----------------------------|----------------------------|---------
|----------------------------|----------------------------|---------
|-7--------------------------|-5--------------------------|-7-------
|-7---------------8---8-8-8--|-5------------7------7-7-7--|-7-fade--
|-5---------------8---8-8-8--|-3------------7------7-7-7--|-5-------
|-----------------6---6-6-6--|--------------5------5-5-5--|---------
..... .....


1. sloka: Riff 1/cisty zvuk

Kolikrat potkas svy stary napady
sny co jsi ztratil a lidi cos znal
Proc se ohlizis nedbas svy zasady
co bylo bylo vzdyt zivot jde dal

Mezihra A

D5 B5 C5 A5
|-------------------------|--------------------------|
|-------------------------|--------------------------|
|-7-----------------------|-5------------------------|
|-7-----------8-----8-8-8-|-5------------7-----7-7-7-|2x
|-5-----------8-----8-8-8-|-3------------7-----7-7-7-|
|-------------6-----6-6-6-|--------------5-----5-5-5-|
P.M...... .....

2. sloka: Riff 1

Stale si hyckas svy ztraty a nalezy
sam obcas nevis kdo zaplni sal
co stoji potlesk zda na nem zalezi
co z neho zbyde a pretrva dal

Refren:

1 2 3 4 1 2 3 4
D5C5B5D5 B5 G5 A5
|------------------|-------------------|
|------------------|-------------------|
|-2-----2---3------|-------------------|
|-0-5-3-0---3------|-5-----7-7-7-7-7-7-| 4x
|---3-1-----1------|-5-----7-7-7-7-7-7-|
|------------------|-3-----5-5-5-5-5-5-|
.........

To co bylo
nechava stopy necekany
To co bylo
chteny i nevitany
To co bylo
odchazi vraci se z nenadani
To co bylo
nezmizi mas to spocitany

Solo 2: totozne se solem 1

3. sloka: Riff 1

Pro trochu penez slavy a uspechu
jednou se ohnes uz nenarovnas
nejsi sam sebou pri vstupu na scenu
jak tohle smazat se zbytecne ptas

Refren

Mezihra B

1 2 3 4 1 2 3 4
|-------------------------|-------------------------|
|-------------------------|-------------------------|
|-------------------------|-------------------------|
|-------------------------|-------------------------| 4x
|-4-6-7-4-6-7-4-6-7-4-6-7-|-4-6-7-4-6-7-6-4-6-7-6---|
|-------------------------|-----------------------7-|
PM..................................................

Gt. II doprovazi druhou pulku mezihry o oktavu vyse

Refren

Konec
To co bylo
|-----------------||
|-----------------||
|-2-----2-tacet---||
|-0-5-3-0---------||
|---3-1-----------||
|-----------------||

 
»
Tvoje obľúbené položky
Tvoje obľúbené položky
»
Najnovšie videá
Najnovšie videá

»
Tvoje obľúbené piesne
Tvoje obľúbené piesne
»
Najnavštevovanejšie piesne
Najnavštevovanejšie piesne
Žít Svůj Sen - akordy a text

Slečna závist - akordy a text

Ztráty a nálezy - akordy a text

Žít svůj sen - akordy a text

Zimní Královna - akordy a text

Chtěl Bych Ti Říct - akordy a text

Nikotin - text

Apage Satanas - taby

Ztráty a nálezy (komplet) - taby

S.O.S - text

Zimní královna - akordy

Apage Satanas - akordy a text

Forrest Gump - akordy a text

Orion - text

Antikrist - text

Proč - text

Vstávej - text

Ztráty a Nálezy 2 - akordy

Dál, dál se ptej - akordy a text

Zimní královna (správně !!!) - taby

viac

»
Nové albumy interpreta
Nové albumy interpreta



home | interpreti | register piesní | cd & dvd shop | pripomienky/nápady | kontakt | ochrana údajov | inzercia