Arakain


piesne (280)

  texty (212)
  akordy (37)
  taby (57)
  preklady (0)


články (243)
Fotky (46)
diskusia
videá
diskografia
v obchode
odkazy
koncerty
sťahuj



pridaj vlastný článok

Arakain:
Na koncerty už nechodím. Pak musím vždy něco opravit, říká legenda rocku - Rudolf Rožďalovský patří k legendám zdejšího rocku. Za komunistů zakládal kapel... - idnes.cz


Arakain:
ROZHOVOR | Jiří Urban (Arakain): Název Respiratour je smutným odrazem
reality v nadsázce slovní hříčky
- Situace kolem koronaviru změnila plány mnohým muzikantům. Nejinak tomu bylo u kapely ... - IREPORT


Arakain:
ARAKAIN: „Thrash the Trash“ na exkluzivním tričku - Československo dýchalo první rok bez rdoušení prackami totalitního režimu a čerst... - spark


Arakain:
ROZHOVOR | Arakain: Byli jsme samá stížnost a zákaz. Kdo ví, co by bylo bez
revoluce, říká Urban
- Koncertní pauza vybízí k rozhovorům, muzikanti mají čas se zastavit a bilancovat. S... - IREPORT


Arakain:
10 desek - 10 nejoblíbenějších desek Jiřího Urbana - Kytarista Jiří Urban je zakládající a nejdéle hrající člen skupiny Arakain. S Ar...


Arakain:
Koncerty nám zrušili, zavzpomínejme na Rockový Majáles - Oblíbený festival proběhl 19. - 20. zaří 2020 proběhl v Bystřici nad Pernštejnem ... - spark


Arakain:
Smutný den pro pražské rockery. Dnes se zavře legendární žižkovský klub
Kain
- Dvacet let se scházeli milovníci tvrdých kytarových riffů v Rock Club Kain v Husits... - blesk.cz


Arakain:
Arakain v červnu a červenci vyrazí na letní parkety - Aktualizace: 02.06.2020 10:07 Vydáno: 02.06.2020, 10:07 foto Ilustrační foto - Skupi... - ceskenoviny.cz


Arakain:
Lucie Bílá kedysi a dnes: Aha, ako dospela do krásy - Lucie Bílá Lucie Bílá Zdroj: Ján Zemiar, pred 12 hodinami PRAHA - Dnes ni... - topky.sk


Arakain:
Dymytry obdrželi v O2 universu Platinovou desku z rukou Jiřího Urbana
staršího z Arakainu
- ireport.cz


 

Arakain

Fanúšikov: 3



A B C Č D E F G H CH I J K L Ľ M N O P Q R S Š T U V W X Y Z Ž



ako:
Arakain - Antikrist
Arakain - Antikrist

tlač

edituj
Rok vzniku: 2006
Pesničku videlo 6349 návštevníkov.

Kvalita tabov : bez hodnotenia
Hodnotilo ľudí: 0 ohodnoť aj ty
  *** Autor textu: Aleš Brichta *** Autor hudby: Mirek Mach

e--------------------------------------------------------
h--------------------------------------------------------
g--------------------------------------------------------
D-------------------------------obě kytary------------
A---5----2---5---7---2-------5---2---5---7-----------
E---3----0---3---5---0-------3---0---3---5---00000-


e-----------------------------------------------------
h-----------------------------------------------------
g-----------------------------------------------------4X
D-----------------------------------------------------
A--5----2---5---7---2-----5---7---8---7---5---77-
E--3----0---3---5---0-----3---5---6---5---3------

e-----------------------------------------------------
h-----------------------------------------------------
g-----------------------------------------------------
D----jedna kyt.--------------obě kytary----------
A-----------------------------------------------------
E---0-0-0--00--0000-----0-0-0--00--0000------


e-----------------------------------------------------
h-------------------------------------------15 /-----
g-----------------------------------------------------
D----------------------- 4X-------------------------
A--7--5---542--------------------------------------
E--5--3-----------0-0-0--00--0000----------------

e-----------------------------------------------------
h-----------------------------------------------------
g-----------------------------------------------------
D-----------------------------------------------------
A-----------------------------------------------------
E-0-0--00--0000--0-0--00--0000--0-0--00-0000-
Zas s partou ulicí táhnem, dědci hrozej nám holí před
hospodou do kapsy šáhnem, kde těch pár drobnejch zvoní

e-----------------------------------------------------
h-----------------------------------------------------
g-----------------------------------------------------
D-----------------------------------------------------
A----7--5----5--4--2-------------------------------
E----5--3--------------0-0-00--0000--------------
Let´s go hospodo hoď sebou




e-----------------------------------------------------
h-----------------------------------------------------
g------2----0----------------------------------------
D-----------------------------------------------------
A--------------------5-4-2--------------------------
E------------------------------0-0-00--0000-------
cpi to sem, piš nám to hráběma

e-----------------------------------------------------
h-----------------------------------------------------
g-----------------------------------------------------
D--------------------------------7----6-----------
A--7----5---5-4-2----------------7----------------
E--5----3-------------0-0-000----5----------------
Let´s go, co čumíš nádhero popojedem
e-----------------------------------------------------
h-----------------------------------------------------
g-----------------------------------------------------
D------------------|-riff x-→ ----------------------
A------------------|-----9------98------9------9-10
E----0-0--00-------77---77------777-----77-----
pěna nám padá

e-----------------------------------------------------
h-----------------------------------------------------
g-----------------------------------------------------
D-------------------------------| ← -----------------
A--------9-------98-------98-|----------------------
E--777-----777-----777--------000-0-0-000--0-
Thrash, black,punk

e-----------------------------------------------------
h-----------------------------------------------------
g-----------------------------------------------------
D-----------------------------------------------------
A-----------------------------------------------------
E-000-0-0-000--0-000-00-0-0-0-0-00---0-00---
nebo hardcore, vlajka klubu a žízeň. Džíny
kůže kov jako zákon, holky maj naši přízeň

Let´s go hospodo…


e-----------------------------------------------------
h-----------------------------------------------------
g-----------------------------------------------------
D----------------------------------------------------
A--5--2------5--7-0---5-7-8-7--5-----7--7-----
E--3--0------3--5-2---3-5-6-5--3----------------
Flákač a antikrist říkaj že sem
e-----------------------------------------------------
h-----------------------------------------------------
g------------------------------------------------2X-
D-----------------------------------------------------
A--5--2------5--7--0------5-7-8-7--5--77---33--
E--3--0------3--5--2------3-5-6-5--3------------
flákač a antikrist to jsem já

následuje riff x
a poté následující riff Y↓

e-----------------------------------------------------
h-----------------------------------------------------
g-----------------------------------------------------
D-----------------------------------------------------
A---------8-7------7-8--5--7--8--------8-7-------
E--0000-6-5-00--5-6--3--5--6-0000-6-5-00---


e-----------------------------------------------------
h-----------------------------------------------------
g-----------------------------------------------------
D--------------konec riffu Y----------------------
A--7-8--7-5-----------------------------------------
E--5-6--5-3-----------------------------------------

do rifu Y, který se jednou zahraje beze zpěvu
se polozpívá text:

Když prej nedám na modlení,
nikdy nepřijdu do nebe.
Kdo na to věěří, ten ať se změní
a každej stará sám o sebe.


e-----------------------------------------------------
h-----------------------------------------------------
g-----------------------------------------------------
D-----------------------------------------------------
A-------7-------6---------7875--4542------------
E-0000--0000---0000-----------------0000------

e-----------------------------------------------------
h-----------------------------------------------------
g-----------------------------------------------------
D-----------------------------------------------------
A-----------------------------------------------------
E---7875--4542-- 0000--------5555-------------


e-----------------------------------------------------
h-----------------------------------------------------
g-----------------------------------------------------
D-----------------------------------------------------
A--5--------------------------2-------------------------
E--3--------------------------0-------------------------
Vždycky když přijde nějákej starej zasloužilej
e-----------------------------------------------------
h-----------------------------------------------------
g-----------------------------------------------------
D-----------------------------------------------------
A--5----------------7------------2------------5-----
E--3----------------5------------0------------3-----
chlápek a říká, co můžu a co nemůžu, udělám
e-----------------------------------------------------
h-----------------------------------------------------
g-----------------------------------------------------
D-----------------------------------------------------
A---2---------------5---------------7---------------
E---0---------------3---------------5---------------
přesně pravej opak, a on se potom ptá proč
e-----------------------------------------------------
h-----------------------------------------------------
g-----------------------------------------------------
D----------------------------------------------------
A-------2-----------------------------?---------------
E-------0---------------------------0000-------------
proč? No prostě proto, že jsem

Flákač a antikrist…





 
»
Tvoje obľúbené položky
Tvoje obľúbené položky
»
Najnovšie videá
Najnovšie videá

»
Tvoje obľúbené piesne
Tvoje obľúbené piesne
»
Najnavštevovanejšie piesne
Najnavštevovanejšie piesne
Žít Svůj Sen - akordy a text

Slečna závist - akordy a text

Ztráty a nálezy - akordy a text

Žít svůj sen - akordy a text

Zimní Královna - akordy a text

Chtěl Bych Ti Říct - akordy a text

Nikotin - text

Apage Satanas - taby

Ztráty a nálezy (komplet) - taby

S.O.S - text

Zimní královna - akordy

Apage Satanas - akordy a text

Forrest Gump - akordy a text

Orion - text

Antikrist - text

Proč - text

Vstávej - text

Ztráty a Nálezy 2 - akordy

Dál, dál se ptej - akordy a text

Zimní královna (správně !!!) - taby

viac

»
Nové albumy interpreta
Nové albumy interpreta



home | interpreti | register piesní | cd & dvd shop | pripomienky/nápady | kontakt | ochrana údajov | inzercia