Arakain


piesne (280)

  texty (212)
  akordy (37)
  taby (57)
  preklady (0)


články (243)
Fotky (46)
diskusia
videá
diskografia
v obchode
odkazy
koncerty
sťahuj



pridaj vlastný článok

Arakain:
Na koncerty už nechodím. Pak musím vždy něco opravit, říká legenda rocku - Rudolf Rožďalovský patří k legendám zdejšího rocku. Za komunistů zakládal kapel... - idnes.cz


Arakain:
ROZHOVOR | Jiří Urban (Arakain): Název Respiratour je smutným odrazem
reality v nadsázce slovní hříčky
- Situace kolem koronaviru změnila plány mnohým muzikantům. Nejinak tomu bylo u kapely ... - IREPORT


Arakain:
ARAKAIN: „Thrash the Trash“ na exkluzivním tričku - Československo dýchalo první rok bez rdoušení prackami totalitního režimu a čerst... - spark


Arakain:
ROZHOVOR | Arakain: Byli jsme samá stížnost a zákaz. Kdo ví, co by bylo bez
revoluce, říká Urban
- Koncertní pauza vybízí k rozhovorům, muzikanti mají čas se zastavit a bilancovat. S... - IREPORT


Arakain:
10 desek - 10 nejoblíbenějších desek Jiřího Urbana - Kytarista Jiří Urban je zakládající a nejdéle hrající člen skupiny Arakain. S Ar...


Arakain:
Koncerty nám zrušili, zavzpomínejme na Rockový Majáles - Oblíbený festival proběhl 19. - 20. zaří 2020 proběhl v Bystřici nad Pernštejnem ... - spark


Arakain:
Smutný den pro pražské rockery. Dnes se zavře legendární žižkovský klub
Kain
- Dvacet let se scházeli milovníci tvrdých kytarových riffů v Rock Club Kain v Husits... - blesk.cz


Arakain:
Arakain v červnu a červenci vyrazí na letní parkety - Aktualizace: 02.06.2020 10:07 Vydáno: 02.06.2020, 10:07 foto Ilustrační foto - Skupi... - ceskenoviny.cz


Arakain:
Lucie Bílá kedysi a dnes: Aha, ako dospela do krásy - Lucie Bílá Lucie Bílá Zdroj: Ján Zemiar, pred 12 hodinami PRAHA - Dnes ni... - topky.sk


Arakain:
Dymytry obdrželi v O2 universu Platinovou desku z rukou Jiřího Urbana
staršího z Arakainu
- ireport.cz


 

Arakain

Fanúšikov: 3



A B C Č D E F G H CH I J K L Ľ M N O P Q R S Š T U V W X Y Z Ž



ako:
Arakain - Mám to za pár
Arakain - Mám to za pár

tlač

edituj
Rok vzniku: 2006
Poznámka: Zxxxxen? se ty taby vždycky rozhodí

Pesničku videlo 3970 návštevníkov.

Kvalita tabov : bez hodnotenia
Hodnotilo ľudí: 0 ohodnoť aj ty
  *** Autor textu: Aleš Brichta *** Autor hudby: Mirek Mach

e----------------------------------
h----------------------------------
g---------------------------------- 2X
D----------------------------------
A----------------------------------
E---22-22-22-22-22-22-22-22-22-22--


e------------------------------3---
h-----------------------------3----
g----------------------------0-----
D---------------------------0------
A--------------------------2-------
E---22222-22-2-2-2-2-2-2-3---------


e----------------------------------
h----------------------------------
g----------------------------------
D----------------------------------
A------------------------/10-------
E---22-2-2-2-2-2-2-----------------

e-------------------------3--------
h------------------------3---------
g-----------------------0----------
D----------------------0-----------
A---------------------2------------
E----22-2-2-2-2-2-2--3-------------

e----------------------------------
h----------------------------------
g----------------------------------
D----------------------------------
A------------------------/10-------
E---22-2-2-2-2-2-2-----------------

e--------------------------3-------
h-------------------------3--------
g------------------------0---------
D-----------------------0----------
A----------------------2-----------
E----22-2-2-2-2-2-2---3------------
Přestaňte ječet pane
Nechte to plavat pane





e----------------------------------
h----------------------------------
g----------------------------------
D----------------------------------
A------------------------/10-------
E---22-2-2-2-2-2-2-----------------
generál
generál
e---------------------------3------
h--------------------------3-------
g-------------------------0--------
D------------------------0---------
A-----------------------2----------
E----22-2-2-2-2-2-2----3-----------
nechci jít bručet jen jsem
bolí mě hlava nejsem
e----------------------------------
h----------------------------------
g----------------------------------
D----------------------------------
A------------------------/10-------
E---22-2-2-2-2-2-2-----------------
nevnímal
genitál
e----------------------------3-----
h---------------------------3------
g--------------------------0-------
D-------------------------0--------
A------------------------2---------
E----22-2-2-2-2-2-2-----3----------
nechte si dojmy pane
tak buďte člověk pane
e----------------------------------
h----------------------------------
g----------------------------------
D----------------------------------
A------------------------/10-------
E---22-2-2-2-2-2-2-----------------
generál
generál
e--------------------------3-------
h-------------------------3--------
g------------------------0---------
D-----------------------0----------
A----------------------2-----------
E----22-2-2-2-2-2-2---3------------
já si rok vojny vážně
já dobrovolně bych tu


e----------------------------------
h----------------------------------
g----------------------------------
D----------------------------------
A---------------------/10---7--5-4-
E---22-2-2-2-2-2-2----------5--3-2-
nevybral
nezůstal

e----------------------------------
h----------------------------------
g----------------------------------
D----------------------------------
A--------------------------7--9-4--
E-2--2----2----2-2--2--2---5557-2--
Prostě jsem nepozdravil
e----------------------------------
h----------------------------------
g----------------------------------
D----------------------------------
A-------------7---9----------7-5-4-
E--2--2--2----5---7----------5-3-2-
myšlenky nezastavil

e------------------------------------
h------------------------------------
g------------------------------------
D------------------------------------
A----------------------------5-------
E-2--2--2-----2--2---2---2---3-------
prostě jsem v duchu slavil mám už to za pár

e------------------------------------
h------------------------------------
g------------------------------------
D------------------------------------
A------------------44444444444444444-
E-2222222222222222-------------------
Svoboda pozve mě do svýho stáda
A moje holka mi umeje záda
A pak dlouho s partou se budeme vítat
Skončíme až bude za okny svítat








e------------------------------------
h------------------------------------
g------------------------------------
D------------------------------------
A------------------------------------
E-4444444444444444--------467-467----
slyším, na vrata tluče
vezmu ji do náruče
kašlat na lampasáky
a na vás kašlu taky

po sólu 4 krát ( viz šipky)
e -----------------------------------
h → ---------------------------------
g------------------------------------
D------------------------------------
A-----------44---676-----------------
E-22---454-----------4--676---22--454-

e------------------------------------
h------------------------------------
g------------------------------------
D------------------------------------
A------------44---676----77---9-10-9-
E-22---454---------------------------

e------------------------------------
h------------------------------------
g------------------------------------
D------------------------------------
A--22---454-- ← ---------------------
E------------------------------------


Svoboda pozve mě …




Nechte to plavat pane generál
nechte to plavat, mám to za pár

 
»
Tvoje obľúbené položky
Tvoje obľúbené položky
»
Najnovšie videá
Najnovšie videá

»
Tvoje obľúbené piesne
Tvoje obľúbené piesne
»
Najnavštevovanejšie piesne
Najnavštevovanejšie piesne
Žít Svůj Sen - akordy a text

Slečna závist - akordy a text

Ztráty a nálezy - akordy a text

Žít svůj sen - akordy a text

Zimní Královna - akordy a text

Chtěl Bych Ti Říct - akordy a text

Nikotin - text

Apage Satanas - taby

Ztráty a nálezy (komplet) - taby

S.O.S - text

Zimní královna - akordy

Apage Satanas - akordy a text

Forrest Gump - akordy a text

Orion - text

Antikrist - text

Proč - text

Vstávej - text

Ztráty a Nálezy 2 - akordy

Dál, dál se ptej - akordy a text

Zimní královna (správně !!!) - taby

viac

»
Nové albumy interpreta
Nové albumy interpreta



home | interpreti | register piesní | cd & dvd shop | pripomienky/nápady | kontakt | ochrana údajov | inzercia