Arakain


piesne (280)

  texty (212)
  akordy (37)
  taby (57)
  preklady (0)


články (243)
Fotky (46)
diskusia
videá
diskografia
v obchode
odkazy
koncerty
sťahuj



pridaj vlastný článok

Arakain:
Na koncerty už nechodím. Pak musím vždy něco opravit, říká legenda rocku - Rudolf Rožďalovský patří k legendám zdejšího rocku. Za komunistů zakládal kapel... - idnes.cz


Arakain:
ROZHOVOR | Jiří Urban (Arakain): Název Respiratour je smutným odrazem
reality v nadsázce slovní hříčky
- Situace kolem koronaviru změnila plány mnohým muzikantům. Nejinak tomu bylo u kapely ... - IREPORT


Arakain:
ARAKAIN: „Thrash the Trash“ na exkluzivním tričku - Československo dýchalo první rok bez rdoušení prackami totalitního režimu a čerst... - spark


Arakain:
ROZHOVOR | Arakain: Byli jsme samá stížnost a zákaz. Kdo ví, co by bylo bez
revoluce, říká Urban
- Koncertní pauza vybízí k rozhovorům, muzikanti mají čas se zastavit a bilancovat. S... - IREPORT


Arakain:
10 desek - 10 nejoblíbenějších desek Jiřího Urbana - Kytarista Jiří Urban je zakládající a nejdéle hrající člen skupiny Arakain. S Ar...


Arakain:
Koncerty nám zrušili, zavzpomínejme na Rockový Majáles - Oblíbený festival proběhl 19. - 20. zaří 2020 proběhl v Bystřici nad Pernštejnem ... - spark


Arakain:
Smutný den pro pražské rockery. Dnes se zavře legendární žižkovský klub
Kain
- Dvacet let se scházeli milovníci tvrdých kytarových riffů v Rock Club Kain v Husits... - blesk.cz


Arakain:
Arakain v červnu a červenci vyrazí na letní parkety - Aktualizace: 02.06.2020 10:07 Vydáno: 02.06.2020, 10:07 foto Ilustrační foto - Skupi... - ceskenoviny.cz


Arakain:
Lucie Bílá kedysi a dnes: Aha, ako dospela do krásy - Lucie Bílá Lucie Bílá Zdroj: Ján Zemiar, pred 12 hodinami PRAHA - Dnes ni... - topky.sk


Arakain:
Dymytry obdrželi v O2 universu Platinovou desku z rukou Jiřího Urbana
staršího z Arakainu
- ireport.cz


 

Arakain

Fanúšikov: 3



A B C Č D E F G H CH I J K L Ľ M N O P Q R S Š T U V W X Y Z Ž



ako:
Arakain - Metalománie
Arakain - Metalománie

tlač

edituj
Rok vzniku: 2006
Pesničku videlo 9358 návštevníkov.

Kvalita tabov : bez hodnotenia
Hodnotilo ľudí: 0 ohodnoť aj ty
  *** Autor textu: Aleš Brichta *** Autor hudby: Aleš Brichta

e-------------------------------------
h-------------------------------------
g---------9--------------9------------ 2X
D----979------------979---------------
A--------------9/-------------7-9/----
E--------------7/-------------5-7/----

e-------------------------------------
h--------------15--------------15-----
g--16-14-16-----------16-14-16-------- 2X
D-------------------------------------
A---------------9/-----------------7-9/-
E---------------7/-----------------5-7/-

e-------------------------------------
h-------------------------------------
g------------------------------------- 4x
D-------------------------------------
A------10------12-----10-----5--------
E--555-8---555-10-555-8--555-3--------

e--------------------------------------
h--------------------------------------
g--------------------------------------
D--------------------------------------
A--9-----------------------------------
E--7-----------------------------------
Slanej pot pálí světla krev ti uvaří
Transparenty v rukou to je snad mámení
e----------------------------------------
h----------------------------------------
g----------------------------------------
D----------------------------------------
A--9-12----------------------------------
E--7-10----------------------------------
decibelů bouře si tě vede k oltáři
nevěříš svým očím to už je k zbláznění
e-----------------------------------------
h-----------------------------------------
g-----------------------------------------
D-----------------------------------------
A--7-9------------------------------------
E--5-7------------------------------------
namísto ženský jen pár kytar vyjících
pojďte všichni s námi ať je nás cvoků víc


e-----------------------------------------
h-----------------------------------------
g-----------------------------------------
D-----------------------------------------
A--9-12-----------------------------------
E--7-10-----------------------------------
a banda kluků týhle hudbě věřící
když vás bude slyšet my vám vyjdem vstříc

e------------------------------------------
h------------------------------------------
g------------------------------------------
D------------------------------------------
A------------------------------------------
E--5555555555555555555555555555555555555555
Pro vás metalový fans pro vás budem hrát

e-----------------------------------------
h-----------------------------------------
g-----------------------------------------
D-----------------------------------------
A-----------------------------------------
E-777777777777777777777777777777777777777-
vás jen metalový fans vás se budem ptát

e-----------------------------------------
h-----------------------------------------
g-----------------------------------------
D------------------------------------------
A-9--------------12--------------9--------12-
E-7--------------10—55553333-----7--------10-
Tak jak vám sedí ta naše metalománie

e----------------------------------------
h----------------------------------------
g----------------------------------------
D----------------------------------------
A----------------------------------------
E-55553333-------------------------------


 
»
Tvoje obľúbené položky
Tvoje obľúbené položky
»
Najnovšie videá
Najnovšie videá

»
Tvoje obľúbené piesne
Tvoje obľúbené piesne
»
Najnavštevovanejšie piesne
Najnavštevovanejšie piesne
Žít Svůj Sen - akordy a text

Slečna závist - akordy a text

Ztráty a nálezy - akordy a text

Žít svůj sen - akordy a text

Zimní Královna - akordy a text

Chtěl Bych Ti Říct - akordy a text

Nikotin - text

Apage Satanas - taby

Ztráty a nálezy (komplet) - taby

S.O.S - text

Zimní královna - akordy

Apage Satanas - akordy a text

Forrest Gump - akordy a text

Orion - text

Antikrist - text

Proč - text

Vstávej - text

Ztráty a Nálezy 2 - akordy

Dál, dál se ptej - akordy a text

Zimní královna (správně !!!) - taby

viac

»
Nové albumy interpreta
Nové albumy interpreta



home | interpreti | register piesní | cd & dvd shop | pripomienky/nápady | kontakt | ochrana údajov | inzercia