Arakain


piesne (280)

  texty (212)
  akordy (37)
  taby (57)
  preklady (0)


články (243)
Fotky (46)
diskusia
videá
diskografia
v obchode
odkazy
koncerty
sťahuj



pridaj vlastný článok

Arakain:
Na koncerty už nechodím. Pak musím vždy něco opravit, říká legenda rocku - Rudolf Rožďalovský patří k legendám zdejšího rocku. Za komunistů zakládal kapel... - idnes.cz


Arakain:
ROZHOVOR | Jiří Urban (Arakain): Název Respiratour je smutným odrazem
reality v nadsázce slovní hříčky
- Situace kolem koronaviru změnila plány mnohým muzikantům. Nejinak tomu bylo u kapely ... - IREPORT


Arakain:
ARAKAIN: „Thrash the Trash“ na exkluzivním tričku - Československo dýchalo první rok bez rdoušení prackami totalitního režimu a čerst... - spark


Arakain:
ROZHOVOR | Arakain: Byli jsme samá stížnost a zákaz. Kdo ví, co by bylo bez
revoluce, říká Urban
- Koncertní pauza vybízí k rozhovorům, muzikanti mají čas se zastavit a bilancovat. S... - IREPORT


Arakain:
10 desek - 10 nejoblíbenějších desek Jiřího Urbana - Kytarista Jiří Urban je zakládající a nejdéle hrající člen skupiny Arakain. S Ar...


Arakain:
Koncerty nám zrušili, zavzpomínejme na Rockový Majáles - Oblíbený festival proběhl 19. - 20. zaří 2020 proběhl v Bystřici nad Pernštejnem ... - spark


Arakain:
Smutný den pro pražské rockery. Dnes se zavře legendární žižkovský klub
Kain
- Dvacet let se scházeli milovníci tvrdých kytarových riffů v Rock Club Kain v Husits... - blesk.cz


Arakain:
Arakain v červnu a červenci vyrazí na letní parkety - Aktualizace: 02.06.2020 10:07 Vydáno: 02.06.2020, 10:07 foto Ilustrační foto - Skupi... - ceskenoviny.cz


Arakain:
Lucie Bílá kedysi a dnes: Aha, ako dospela do krásy - Lucie Bílá Lucie Bílá Zdroj: Ján Zemiar, pred 12 hodinami PRAHA - Dnes ni... - topky.sk


Arakain:
Dymytry obdrželi v O2 universu Platinovou desku z rukou Jiřího Urbana
staršího z Arakainu
- ireport.cz


 

Arakain

Fanúšikov: 3



A B C Č D E F G H CH I J K L Ľ M N O P Q R S Š T U V W X Y Z Ž



ako:
Arakain - Deň potom
Arakain - Deň potom

tlač

edituj
Rok vzniku: 2006
Poznámka: nejsem si jistý jestli tu je A nebo Bdur

Pesničku videlo 3492 návštevníkov.

Kvalita tabov : bez hodnotenia
Hodnotilo ľudí: 0 ohodnoť aj ty
  *** Autor textu: Aleš Brichta *** Autor hudby: Zden?k Kub

e----------------------------------------------
h----------------------------------------------
g-------------------------------------4-2------
D-------------------------------2-2--------4---
A--2----3--2-----7-5-2--2-4-2-------4----------
E--0----1--0-----5-3-0------0------------------

e----------------------------------------------
h----------------------------------------------
g----------------------------------------------
D--4-----5--4----------------------------------
A--2-----3--2---5--2---3-3---2-----7-5-2-------
E---------------3--0---1-1---0-----5-3-0-------

e----------------------------------------------
h----------------------------------------------
g----------------4-2---------------------------
D----------2-2------4-4----5-4-----------------
A--224-2-------4------2----3-2-5---------------
E------0-----------------------3--0000---------

e----------------------------------------------
h----------------------------------------------
g----------------------------------------------
D----------------------------------------------
A------------5-7----------------5-7------------
E--0000-0000-3-5-0000-0000-0000-3-5------------

e----------------------------------------------
h----------------------------------------------
g----------------------------------------------
D----------------------------------------------
A-----------------5-7--------------------------
E--0000-0000-0000-3-5-0000-0000-0000-----------

e-------------------------------------------
h-------------------------------------------
g-------------------------------------------
D-------4-2--4--------------5-5-4-----------
A--2-20------2222-2222-2222-3-3-2-22222-----
E-------------------------------------------

e-------------------------------------------
h-------------------------------------------
g-------------------------------------------
D-------------------------------------------
A--2-5----------------5-7-------------------
E--0-3-0000-0000-0000-3-5-0000-0000-0000----
H o ř í trosky m ě s t a

e-------------------------------------------
h-------------------------------------------
g-------------------------------------------
D-------------------------------------------
A--5-7----------------5-7-------------------
E--3-5-0000-0000-0000-3-5-0000-0000-0000----
v zapomnění prostírá černý šál
e-------------------------------------------
h-------------------------------------------
g-------------------------------------------
D-------------------------------------------
A-2242------------------5-7-----------------
E--------0000-0000-0000-3-5-0000-0000-0000--
n e n í kdo by v r á t i l
e-------------------------------------------
h-------------------------------------------
g-------------------------------------------
D-------------------------------------------
A--5-7----------------5-7-------------------
E--3-5-0000-0000-0000-3-5-0000-0000-0000----
Svět zas z p á t k y člověk šanci si vzal
e-------------------------------------------
h-------------------------------------------
g-------------------------------------------
D------------------------------2-2----------
A-3333333322222233333----------0-0----------
E-------------------------------------------
U plných stolů teď tančí jen prach
e-------------------------------------------
h-------------------------------------------
g-------------------------------------------
D--------------------------------7----------
A-3-3-3-3-3--2-2-2-2-3-3-3-3-3---5----------
E-------------------------------------------
a zbytky myrty si nechají zdát hostinu
e-----------------------------------------
h-----------------------------------------
g-----------------------------------------
D-----------------------------------------
A-----------5-7----------------5-7--------
E-0000-0000-3-5-0000-0000-0000-3-5--------
svatební d e n p o t o m
e-----------------------------------------
h-----------------------------------------
g-----------------------------------------
D-----------------------------------------
A----------------5-7----------------------
E-0000-0000-0000-3-5-0000-0000-0000-------
vládne radiace den potom
e-------------------------------------------
h-------------------------------------------
g-------------------------------------------
D-------20---------------------5---5--------
A--2-20---2-2222-2222-2222-----3---3---2222-
E-------------------------------------------
P a m a t u j že k téhle vizi
e-------------------------------------------
h-------------------------------------------
g-------------------------------------------
D---------4--2------------------------------
A--2222--------- 4--2-----------------------
E--------------------------0000-0000-0000---
nesmíš nechat dojít
e-------------------------------------------
h-------------------------------------------
g-------------------------------------------
D-------------------------------------------
A--5-7----------------5-7-------------------
E--3-5-0000-0000-0000-3-5-0000-0000-0000----

e-------------------------------------------
h-------------------------------------------
g-------------------------------------------
D-------------------------------------------
A-5-7---------------- 4-2-0-4-2-0-----------
E-3-5-0000-0000-0000------------------------

druhá sloka + ref

e-------------------------------------------
h-------------------------------------------
g-------------------------------------------
D-------------------------------------------
A----2-------------------542-542-542-542----
E----0----0000-0000-0000--------------------
...dojít
e-------------------------------------------
h-------------------------------------------
g-------------------------------------------
D-------------------------------------------
A-542------------542-542-542-542-542--------
E------0000-0000----------------------------

e-------------------------------------------
h-------------------------------------------
g-------------------------------------------
D---------------------420-420-420-420-------
A-----------0000-0000-----------------------
E--0000-0000--------------------------------

e-------------------------------------------
h-------------------------------------------
g-------------------------------------------
D-420---------420-420-420-420-420-----------
A----0000-0000------------------------------
E-------------------------------------------

e------------------------------------------
h------------------------------------------
g------------------------------------------
D------------------------------------------
A-0000-0000---------542-542-542-542-542----
E----------0000-0000-----------------------

e------------------------------------------
h------------------------------------------
g------------------------------------------
D------------5---4---10--9----5-4---10--9--
A------------3---2----8--7----3-2----8--7--
E-0000-0000--------------------------------

riff M
e------------------------------------------
h------------------------------------------
g------------------------------------------ 4x
D------9------10-9-----9--------9-7--------
A-0000-7-0000--8-70000-7-0000-------10-----
E------------------------------------------


e-----------------------------
h-----------------------------
g----4---2--------------------
D-----------4---2-------------
A--------------------2--------
E--------------------0--------
nesmíš nechat dojít



 
»
Tvoje obľúbené položky
Tvoje obľúbené položky
»
Najnovšie videá
Najnovšie videá

»
Tvoje obľúbené piesne
Tvoje obľúbené piesne
»
Najnavštevovanejšie piesne
Najnavštevovanejšie piesne
Žít Svůj Sen - akordy a text

Slečna závist - akordy a text

Ztráty a nálezy - akordy a text

Žít svůj sen - akordy a text

Zimní Královna - akordy a text

Chtěl Bych Ti Říct - akordy a text

Nikotin - text

Apage Satanas - taby

Ztráty a nálezy (komplet) - taby

S.O.S - text

Zimní královna - akordy

Apage Satanas - akordy a text

Forrest Gump - akordy a text

Orion - text

Antikrist - text

Proč - text

Vstávej - text

Ztráty a Nálezy 2 - akordy

Dál, dál se ptej - akordy a text

Zimní královna (správně !!!) - taby

viac

»
Nové albumy interpreta
Nové albumy interpreta



home | interpreti | register piesní | cd & dvd shop | pripomienky/nápady | kontakt | ochrana údajov | inzercia