Arakain


piesne (280)

  texty (212)
  akordy (37)
  taby (57)
  preklady (0)


články (243)
Fotky (46)
diskusia
videá
diskografia
v obchode
odkazy
koncerty
sťahuj



pridaj vlastný článok

Arakain:
Na koncerty už nechodím. Pak musím vždy něco opravit, říká legenda rocku - Rudolf Rožďalovský patří k legendám zdejšího rocku. Za komunistů zakládal kapel... - idnes.cz


Arakain:
ROZHOVOR | Jiří Urban (Arakain): Název Respiratour je smutným odrazem
reality v nadsázce slovní hříčky
- Situace kolem koronaviru změnila plány mnohým muzikantům. Nejinak tomu bylo u kapely ... - IREPORT


Arakain:
ARAKAIN: „Thrash the Trash“ na exkluzivním tričku - Československo dýchalo první rok bez rdoušení prackami totalitního režimu a čerst... - spark


Arakain:
ROZHOVOR | Arakain: Byli jsme samá stížnost a zákaz. Kdo ví, co by bylo bez
revoluce, říká Urban
- Koncertní pauza vybízí k rozhovorům, muzikanti mají čas se zastavit a bilancovat. S... - IREPORT


Arakain:
10 desek - 10 nejoblíbenějších desek Jiřího Urbana - Kytarista Jiří Urban je zakládající a nejdéle hrající člen skupiny Arakain. S Ar...


Arakain:
Koncerty nám zrušili, zavzpomínejme na Rockový Majáles - Oblíbený festival proběhl 19. - 20. zaří 2020 proběhl v Bystřici nad Pernštejnem ... - spark


Arakain:
Smutný den pro pražské rockery. Dnes se zavře legendární žižkovský klub
Kain
- Dvacet let se scházeli milovníci tvrdých kytarových riffů v Rock Club Kain v Husits... - blesk.cz


Arakain:
Arakain v červnu a červenci vyrazí na letní parkety - Aktualizace: 02.06.2020 10:07 Vydáno: 02.06.2020, 10:07 foto Ilustrační foto - Skupi... - ceskenoviny.cz


Arakain:
Lucie Bílá kedysi a dnes: Aha, ako dospela do krásy - Lucie Bílá Lucie Bílá Zdroj: Ján Zemiar, pred 12 hodinami PRAHA - Dnes ni... - topky.sk


Arakain:
Dymytry obdrželi v O2 universu Platinovou desku z rukou Jiřího Urbana
staršího z Arakainu
- ireport.cz


 

Arakain

Fanúšikov: 3



A B C Č D E F G H CH I J K L Ľ M N O P Q R S Š T U V W X Y Z Ž



ako:
Arakain - Noc
Arakain - Noc

tlač

edituj
Rok vzniku: 2006
Pesničku videlo 5133 návštevníkov.

Kvalita tabov : bez hodnotenia
Hodnotilo ľudí: 0 ohodnoť aj ty
  *** Autor textu: to nevim:-) *** Autor hudby: Dan Krob
Tohle berte fakt s rezervou,nebyla to moc jednoduché a opravu jen uvítám.Díky,Pedo


------------4-3----------11-10--------------------
------------3-3------------------11-9-------------
-------------------------------------------12-----
------5-------------------------------------------
---3----------------------------------------------
--------------------------------------------------

-11-10--------------------------------------------
---------11-9-------------------------------------
---------------12--12-14--10-12-8--10-12----------
--------------------------------------------------
--------------------------------------------------
--------------------------------------------------

------------------------------11-10-11-13-11-10--
-------------------------------------------------
-12-10-8-7---------------------------------------
---------------10-9------------------------------
----------------------11-------------------------
-------------------------------------------------

-11-10-------11-10-11-13-11-10--/15-15-15--
----------13-------------------------------
-------------------------------------------
-------------------------------------------
-------------------------------------------
-------------------------------------------


-13--13-11--13--11-13-10-----------------------------
---------------------------------------4-6---4---3----
----------------------------------5-7---------------5-
------------------------------------------------------
------------------------------------------------------
------------------------------------------------------

---10-11-11--------------------------------------
--------------------------4--6--4--3-------------
------------------5--7------------------5--------
-------------------------------------------------
-------------------------------------------------
-------------------------------------------------

--10--11-10----------------------------------------------------
-----------------11--9-----------------------------------------
-------------------------12-10-8-7-----------------------------
--------------------------------------10-9---------------------
---------------------------------------------11-10-8-----------
--------------------------------------------------------11-10-8--

 
»
Tvoje obľúbené položky
Tvoje obľúbené položky
»
Najnovšie videá
Najnovšie videá

»
Tvoje obľúbené piesne
Tvoje obľúbené piesne
»
Najnavštevovanejšie piesne
Najnavštevovanejšie piesne
Žít Svůj Sen - akordy a text

Slečna závist - akordy a text

Ztráty a nálezy - akordy a text

Žít svůj sen - akordy a text

Zimní Královna - akordy a text

Chtěl Bych Ti Říct - akordy a text

Nikotin - text

Apage Satanas - taby

Ztráty a nálezy (komplet) - taby

S.O.S - text

Zimní královna - akordy

Apage Satanas - akordy a text

Forrest Gump - akordy a text

Orion - text

Antikrist - text

Proč - text

Vstávej - text

Ztráty a Nálezy 2 - akordy

Dál, dál se ptej - akordy a text

Zimní královna (správně !!!) - taby

viac

»
Nové albumy interpreta
Nové albumy interpreta



home | interpreti | register piesní | cd & dvd shop | pripomienky/nápady | kontakt | ochrana údajov | inzercia