Arakain


piesne (280)

  texty (212)
  akordy (37)
  taby (57)
  preklady (0)


články (243)
Fotky (46)
diskusia
videá
diskografia
v obchode
odkazy
koncerty
sťahuj



pridaj vlastný článok

Arakain:
Na koncerty už nechodím. Pak musím vždy něco opravit, říká legenda rocku - Rudolf Rožďalovský patří k legendám zdejšího rocku. Za komunistů zakládal kapel... - idnes.cz


Arakain:
ROZHOVOR | Jiří Urban (Arakain): Název Respiratour je smutným odrazem
reality v nadsázce slovní hříčky
- Situace kolem koronaviru změnila plány mnohým muzikantům. Nejinak tomu bylo u kapely ... - IREPORT


Arakain:
ARAKAIN: „Thrash the Trash“ na exkluzivním tričku - Československo dýchalo první rok bez rdoušení prackami totalitního režimu a čerst... - spark


Arakain:
ROZHOVOR | Arakain: Byli jsme samá stížnost a zákaz. Kdo ví, co by bylo bez
revoluce, říká Urban
- Koncertní pauza vybízí k rozhovorům, muzikanti mají čas se zastavit a bilancovat. S... - IREPORT


Arakain:
10 desek - 10 nejoblíbenějších desek Jiřího Urbana - Kytarista Jiří Urban je zakládající a nejdéle hrající člen skupiny Arakain. S Ar...


Arakain:
Koncerty nám zrušili, zavzpomínejme na Rockový Majáles - Oblíbený festival proběhl 19. - 20. zaří 2020 proběhl v Bystřici nad Pernštejnem ... - spark


Arakain:
Smutný den pro pražské rockery. Dnes se zavře legendární žižkovský klub
Kain
- Dvacet let se scházeli milovníci tvrdých kytarových riffů v Rock Club Kain v Husits... - blesk.cz


Arakain:
Arakain v červnu a červenci vyrazí na letní parkety - Aktualizace: 02.06.2020 10:07 Vydáno: 02.06.2020, 10:07 foto Ilustrační foto - Skupi... - ceskenoviny.cz


Arakain:
Lucie Bílá kedysi a dnes: Aha, ako dospela do krásy - Lucie Bílá Lucie Bílá Zdroj: Ján Zemiar, pred 12 hodinami PRAHA - Dnes ni... - topky.sk


Arakain:
Dymytry obdrželi v O2 universu Platinovou desku z rukou Jiřího Urbana
staršího z Arakainu
- ireport.cz


 

Arakain

Fanúšikov: 3



A B C Č D E F G H CH I J K L Ľ M N O P Q R S Š T U V W X Y Z Ž



ako:
Arakain - Quasimodo
Arakain - Quasimodo

tlač

edituj
Rok vzniku: 2006
Pesničku videlo 4823 návštevníkov.

Kvalita tabov : bez hodnotenia
Hodnotilo ľudí: 0 ohodnoť aj ty
  *** Autor textu: Aleš Brichta *** Autor hudby: Aleš Brichta

Tato píseň se hraje se zkresleným zvukem,aby
to někdo nepochopil a na diskuzi mi vynadal.
--------------------------------------------
-------------------7------------------7-----
---------97----997-------------97----997----
-------------9--------------------9---------
--9--7-------------------9-7----------------
--7--5-------------------7-5----------------


--------------------------------------------
--------------------------------------------
----------------------------3X--------------
------4X-----------9-9-9-9-/-12-12-12-------
--9-9-9-9-/12------7-7-7-7-/-10-10-10-------
--7-7-7-7-/10-------------------------------


-----------------------------------
-----------------------------------
-----------------------------------
-9-9-------------------------------
-7-7---12-12-12-----------9-12-9---
-------10-10-10-77777777777-10-7---
Obyčejná třída

---------------------------------------
---------------------------------------
---------------------------------------
---------------------------------------
---------------9-12-9-----------9-12-9-
-777777777777777-10-7-77777777777-10-7-
obyčejnejch lidí mezi nima jeden

--------------------------
--------------------------
--------------------------
--------------------------
------------9-12-11-------
7777777777777-10--9-------
za sebe se stydí smějí se jeho tváři

--------------------------------------------------
--------------------------------------------------
--------------------------------------------------
--------------------------------------------------
-12-------------------14-------12-------11--------
-10-------------------12-------10--------9--------
fimovýho herce no přece víte jak se jmenoval



------------------------------------------------
------------------------------------------------
------------------------------------------------
------------------------------------------------
---------------11----------------------12-------
----------------9----------------------10-------
ten zvoník a každej hlupák může ponížit ho

-----------------------------------------
-----------------------------------------
-----------------------------------------
-----------------------------------------
--------14--------------------9--9--9--9-
--------12--------------------7--7--7--7-
lehce stačí mu říct ,,nazdar Quasi“ Quasi

--------------------------
--------------------------
--------------------------
--------------------------
-----------9--7-----------
---------------9---7------
Quasi jako Quasimodo

Předehra

Jednou takhle v neděli
Byli s partou v lomu.
Říkal,,nechte už mě kluci“
Zasmáli se tomu

Vylezl na vrchol tý nejvyšší skály
Byla to vejška skoro jako Nottre Damme
Ostatní koukali a jenom dole stáli
Pak jeden zařval,,Hele Quasi!
Quasimodo skoč!“
------------------------------------
------------------------------------
------------------------------------
------------------------------------
------9-----9--------10-------10----
-7-7---7-7---7-7-7-----7-7------7-7-

-----------------------------------
-----------------------------------
-----------------------------------
-----------------------------------
------7------7-------9-97----------
-5-5----5-5----7-7-------97--------
pak nám kytary ustupují do pozadí a je slyšet
clean zvuk asi takový:
e1--2--3--5--3--7--0--2--3--5-----

Obyčejná třída…


 
»
Tvoje obľúbené položky
Tvoje obľúbené položky
»
Najnovšie videá
Najnovšie videá

»
Tvoje obľúbené piesne
Tvoje obľúbené piesne
»
Najnavštevovanejšie piesne
Najnavštevovanejšie piesne
Žít Svůj Sen - akordy a text

Slečna závist - akordy a text

Ztráty a nálezy - akordy a text

Žít svůj sen - akordy a text

Zimní Královna - akordy a text

Chtěl Bych Ti Říct - akordy a text

Nikotin - text

Apage Satanas - taby

Ztráty a nálezy (komplet) - taby

S.O.S - text

Zimní královna - akordy

Apage Satanas - akordy a text

Forrest Gump - akordy a text

Orion - text

Antikrist - text

Proč - text

Vstávej - text

Ztráty a Nálezy 2 - akordy

Dál, dál se ptej - akordy a text

Zimní královna (správně !!!) - taby

viac

»
Nové albumy interpreta
Nové albumy interpreta



home | interpreti | register piesní | cd & dvd shop | pripomienky/nápady | kontakt | ochrana údajov | inzercia