Arakain


piesne (280)

  texty (212)
  akordy (37)
  taby (57)
  preklady (0)


články (243)
Fotky (46)
diskusia
videá
diskografia
v obchode
odkazy
koncerty
sťahuj



pridaj vlastný článok

Arakain:
Na koncerty už nechodím. Pak musím vždy něco opravit, říká legenda rocku - Rudolf Rožďalovský patří k legendám zdejšího rocku. Za komunistů zakládal kapel... - idnes.cz


Arakain:
ROZHOVOR | Jiří Urban (Arakain): Název Respiratour je smutným odrazem
reality v nadsázce slovní hříčky
- Situace kolem koronaviru změnila plány mnohým muzikantům. Nejinak tomu bylo u kapely ... - IREPORT


Arakain:
ARAKAIN: „Thrash the Trash“ na exkluzivním tričku - Československo dýchalo první rok bez rdoušení prackami totalitního režimu a čerst... - spark


Arakain:
ROZHOVOR | Arakain: Byli jsme samá stížnost a zákaz. Kdo ví, co by bylo bez
revoluce, říká Urban
- Koncertní pauza vybízí k rozhovorům, muzikanti mají čas se zastavit a bilancovat. S... - IREPORT


Arakain:
10 desek - 10 nejoblíbenějších desek Jiřího Urbana - Kytarista Jiří Urban je zakládající a nejdéle hrající člen skupiny Arakain. S Ar...


Arakain:
Koncerty nám zrušili, zavzpomínejme na Rockový Majáles - Oblíbený festival proběhl 19. - 20. zaří 2020 proběhl v Bystřici nad Pernštejnem ... - spark


Arakain:
Smutný den pro pražské rockery. Dnes se zavře legendární žižkovský klub
Kain
- Dvacet let se scházeli milovníci tvrdých kytarových riffů v Rock Club Kain v Husits... - blesk.cz


Arakain:
Arakain v červnu a červenci vyrazí na letní parkety - Aktualizace: 02.06.2020 10:07 Vydáno: 02.06.2020, 10:07 foto Ilustrační foto - Skupi... - ceskenoviny.cz


Arakain:
Lucie Bílá kedysi a dnes: Aha, ako dospela do krásy - Lucie Bílá Lucie Bílá Zdroj: Ján Zemiar, pred 12 hodinami PRAHA - Dnes ni... - topky.sk


Arakain:
Dymytry obdrželi v O2 universu Platinovou desku z rukou Jiřího Urbana
staršího z Arakainu
- ireport.cz


 

Arakain

Fanúšikov: 3



A B C Č D E F G H CH I J K L Ľ M N O P Q R S Š T U V W X Y Z Ž



ako:
Arakain - Ruce zla
Arakain - Ruce zla

tlač

edituj
Rok vzniku: 2006
Pesničku videlo 2857 návštevníkov.

Kvalita tabov : bez hodnotenia
Hodnotilo ľudí: 0 ohodnoť aj ty
  *** Autor textu: Aleš Brichta *** Autor hudby: Kub

1. rif x 2. rif x + y 3. zpěv
-------------------------------------------
------- x → ------------------------------
-------------------------------------------
-2-2-2-2-2-2-2-2-2-2-2-2-2-0-0-0-0-5-5-5-5-
-------------------------------------------
-------------------------------------------

-------------------------------------------
-------------------------------------------
-------------------------------------------
-2-2-2-2-2-2-2-2-2-2-2-2-0-0-0-0-----------
---------------------------------3-3-3-3---
-------------------------------------------



-------|------------------------------------
----←-|-----------rif y--------------------
-------|------------------------------------
-5--7--|------------5-------2-----------5-7-
-3--5--|--2-2-2-2-3-2-2-2-2-0-2-2-2-2-3-2-5-
-------|------------------------------------



--------|------------------------------------
---- ← |------------------------------------
--------|------------------------------------
---10--|-2-2-2-2-2-2-2-2-2-2-2-2-0-0-0-0-0-0-
-2-8---|-------------------------------------
--------|------------------------------------
Proniká na dno tvých snů hledá tvá


-------------------------------------------
-------------------------------------------
-------------------------------------------
-5-5-5-5-5-----2-2-2-2-2-2-2-2-2-2-2-2-2-2-
-------------------------------------------
-------------------------------------------
tajná přání Pokušení ve všech formách

------------------------------------
------------------------------------
------------------------------------
-0-0-0-0-0-0-0-0-0-5-5-5-5--2-4-----
----------------------------0-2-----
------------------------------------
proti tomu se těžko bráníš
-----------------------------------
-----------------------------------
-----------------------------------
-2-2-2-2-2-2-2-2-2-2-2-2-2-2-2-2-2-
-----------------------------------
-----------------------------------
korupce,služby,protislužby zaběhlý

----------------------------------------------
----------------------------------------------
----------------------------------------------
-5-5-5-5-5-5-5-2-2-2-2-2-2-2-2-2-2----0-0-0-0-
----------------------------------------------
----------------------------------------------
obálek systém Podívej,jak se to dělá když chceš

----------------|----------|-----
----------------|----------|-----
----------------|----------|-----
-5-5-5-5-4-5----|-rif y --|-----
---------2-3----|----------|-----
----------------|----------|-----
tak je to prosté Druhá sloka

----------------------------------------------
----------------------------------------------
----------------------------------------------
-------------5---------2---------------5-7-10-
-2-2-2-2-2-2-3-2-2-2-2-0-2-2-2-2-2-2-2-3-5--8-
----------------------------------------------
Chce tě lapit a neupustit víc
Když se to zdaří tak nezmůžeš nic

-------------------------------------------
-------------------------------------------
-------------------------------------------
-2-2-2-2-2-2-2-2-2-2-2-0-0-0-0-0-0-5-5-5-5-
-------------------------------------------
-------------------------------------------
Už se sápou ven ze tmy, ruce zla nedočkavý

--------------------------------------------------
--------------------------------------------------
--------------------------------------------------
-2-2-2-2-2-2-2-2-2-2-2-2-0-0-0-0-0-5-5-5-5--4---5-
--------------------------------------------2---3-
--------------------------------------------------
Už se sápou ven ze tmy, uhni včas,nenech se chytit


mezihra
-------|--------------------------------------
-28X---|--------------------------------------
-------|------------5-4----------4-3----------
-2-2-2-|--2-2-2-2-2------2-2-2-2------2-2-2-2-
-------|--------------------------------------
-------|--------------------------------------

----------------------
----------------------
---5-4---4-3--3-4-3-0-
-2-----2--------------
----------------------
----------------------



 
»
Tvoje obľúbené položky
Tvoje obľúbené položky
»
Najnovšie videá
Najnovšie videá

»
Tvoje obľúbené piesne
Tvoje obľúbené piesne
»
Najnavštevovanejšie piesne
Najnavštevovanejšie piesne
Žít Svůj Sen - akordy a text

Slečna závist - akordy a text

Ztráty a nálezy - akordy a text

Žít svůj sen - akordy a text

Zimní Královna - akordy a text

Chtěl Bych Ti Říct - akordy a text

Nikotin - text

Apage Satanas - taby

Ztráty a nálezy (komplet) - taby

S.O.S - text

Zimní královna - akordy

Apage Satanas - akordy a text

Forrest Gump - akordy a text

Orion - text

Antikrist - text

Proč - text

Vstávej - text

Ztráty a Nálezy 2 - akordy

Dál, dál se ptej - akordy a text

Zimní královna (správně !!!) - taby

viac

»
Nové albumy interpreta
Nové albumy interpreta



home | interpreti | register piesní | cd & dvd shop | pripomienky/nápady | kontakt | ochrana údajov | inzercia