Arakain


piesne (280)

  texty (212)
  akordy (37)
  taby (57)
  preklady (0)


články (243)
Fotky (46)
diskusia
videá
diskografia
v obchode
odkazy
koncerty
sťahuj



pridaj vlastný článok

Arakain:
Na koncerty už nechodím. Pak musím vždy něco opravit, říká legenda rocku - Rudolf Rožďalovský patří k legendám zdejšího rocku. Za komunistů zakládal kapel... - idnes.cz


Arakain:
ROZHOVOR | Jiří Urban (Arakain): Název Respiratour je smutným odrazem
reality v nadsázce slovní hříčky
- Situace kolem koronaviru změnila plány mnohým muzikantům. Nejinak tomu bylo u kapely ... - IREPORT


Arakain:
ARAKAIN: „Thrash the Trash“ na exkluzivním tričku - Československo dýchalo první rok bez rdoušení prackami totalitního režimu a čerst... - spark


Arakain:
ROZHOVOR | Arakain: Byli jsme samá stížnost a zákaz. Kdo ví, co by bylo bez
revoluce, říká Urban
- Koncertní pauza vybízí k rozhovorům, muzikanti mají čas se zastavit a bilancovat. S... - IREPORT


Arakain:
10 desek - 10 nejoblíbenějších desek Jiřího Urbana - Kytarista Jiří Urban je zakládající a nejdéle hrající člen skupiny Arakain. S Ar...


Arakain:
Koncerty nám zrušili, zavzpomínejme na Rockový Majáles - Oblíbený festival proběhl 19. - 20. zaří 2020 proběhl v Bystřici nad Pernštejnem ... - spark


Arakain:
Smutný den pro pražské rockery. Dnes se zavře legendární žižkovský klub
Kain
- Dvacet let se scházeli milovníci tvrdých kytarových riffů v Rock Club Kain v Husits... - blesk.cz


Arakain:
Arakain v červnu a červenci vyrazí na letní parkety - Aktualizace: 02.06.2020 10:07 Vydáno: 02.06.2020, 10:07 foto Ilustrační foto - Skupi... - ceskenoviny.cz


Arakain:
Lucie Bílá kedysi a dnes: Aha, ako dospela do krásy - Lucie Bílá Lucie Bílá Zdroj: Ján Zemiar, pred 12 hodinami PRAHA - Dnes ni... - topky.sk


Arakain:
Dymytry obdrželi v O2 universu Platinovou desku z rukou Jiřího Urbana
staršího z Arakainu
- ireport.cz


 

Arakain

Fanúšikov: 3



A B C Č D E F G H CH I J K L Ľ M N O P Q R S Š T U V W X Y Z Ž



ako:
Arakain - Muzeum zla
Arakain - Muzeum zla

tlač

edituj
Rok vzniku: 2006
Poznámka: Tohle je opavená verze. V té první jsem napsal n?co blb?. Tady by to už m?lo být dob?e...

Pesničku videlo 4076 návštevníkov.

Kvalita tabov :
Hodnotilo ľudí: 2 ohodnoť aj ty
  *** Autor textu: Zden?k Kub *** Autor hudby: Zden?k Kub

*********************************************************************
****** ARAKAIN – MUZEUM ZLA *****************(z alba: METALMORFOZA)**
*********************************************************************
** Hudba: Zdeněk Kub ****
** Text: Zdeněk Kub ****

Vytvoření: 30.1.2004
Email: martinpavlicek@volny.cz

Tune to D (D,G,C,F,A,D)


Riff 1 (x3) clean
E(--------------------------------------------------------------------------)
B(--------------------------------------------------------------------------)
G(--------------------------------------------------------------------------)
D(------9~----9-------7--------5~-5/7\5-----9~----9-------7--------5~-5\4/5-)
A(----7-----7---7---5---5----4------------7-----7---7---5---5----4----------)
E(--0-----0-------0--------0------------0-----0-------0--------0------------)

Riff 2 (Gtr. 1) Clean
E(--------------------------------------------------------------------------)
B(--------------------------------------------------------------------------)
G(--------------------------------------------------------------------------)
D(------9~----9-------7--------5~-5/7\5-----9~----9-------7--------5~-5\4/5-)
A(----7-----7---7---5---5----4------------7-----7---7---5---5----4----------)
E(--0-----0-------0--------0------------0-----0-------0--------0------------)

(Gtr. 2) Dist.
E(--------------------------------------------------------------------------)
B(--------------------------------------------------------------------------)
G(-9~-------------------------------9~--------------------------------------)
D(-9~-----------9-10-9-10-----------9~-----------9-10-9-10------11~---------)
A(-7~--9-10-9-10-----------9-10-----7~--9-10-9-10-----------9-10------------)
E(------------------------------9~------------------------------------------)

Riff 3a (x2) (Gtr. 1) clean
E(--------------------------------------------------------------------------)
B(--------------------------------------------------------------------------)
G(--------------------------------------------------------------------------)
D(------9~----9-------7--------5~-5/7\5-----9~----9-------7--------5~-5\4/5-)
A(----7-----7---7---5---5----4------------7-----7---7---5---5----4----------)
E(--0-----0-------0--------0------------0-----0-------0--------0------------)

(Gtr. 2) Dist.
E(--------------------------------------------------------------------------)
B(--------------------------------------------------------------------------)
G(--------------------------------------------------------------------------)
D(--------------------------------------------------------------------------)
A(-------------------------------------------------------------222222222222-)
E(-------------------------------------------------------------000000000000-)
P.M. ............

Chorus (x4)
E(---------------------------------<<<< 15-(každá druhá)---------------------)
B(--------------------------------------------------------------------------)
G(--------------------------------------------------------------------------)
D(-------------9-----------7------------5-----------5------------5-6-6------)
A(-2-----------7---7-7-7-7-5----5-5-5-5-4---4-4-4-4-4---4-4-4-4--4-4-4------)
E(-0---0-0-0-0--------------------------------------------------------------)
P.M. . . . . . . . . . . . . . . . . . . . .

Riff 2 (x2) (Gtr. 1) clean
E(--------------------------------------------------------------------------)
B(--------------------------------------------------------------------------)
G(--------------------------------------------------------------------------)
D(------9~----9-------7--------5~-5/7\5-----9~----9-------7--------5~-5\4/5-)
A(----7-----7---7---5---5----4------------7-----7---7---5---5----4----------)
E(--0-----0-------0--------0------------0-----0-------0--------0------------)

(Gtr. 2) Dist.
E(--------------------------------------------------------------------------)
B(--------------------------------------------------------------------------)
G(--------------------------------------------------------------------------)
D(--------------------------------------------------------------------------)
A(--2-2--2-2--2-2---2-2--2-2--2-2----2-2--2-2--2-2---2-2--2-2--2-2----5/6\5-)
E(--0-0--0-0--0-0---0-0--0-0--0-0----0-0--0-0--0-0---0-0--0-0--0-0----3/4\3-)
P.M.. . . . . . . . . . . . . . . . . . . . . . . .

E(--------------------------------------------------------------------------)
B(--------------------------------------------------------------------------)
G(--------------------------------------------------------------------------)
D(--------------------------------------------------------------------------)
A(--2-2--2-2--2-2---2-2--2-2--2-2----5/6\5---2-2--2-2--2-2---22222222222222-)
E(--0-0--0-0--0-0---0-0--0-0--0-0----3/4\3---0-0--0-0--0-0---00000000000000-)
P.M.. . . . . . . . . . . . . . . . . . ..............

Chorus (x4)

Riff 4 clean (x2)
E(---------------------------------------------)
B(---------------------------------------------)
G(---------------------------------------------)
D(-----7~----7-------7-------8~----8-------8---)
A(---7-----7---7---7---7---8-----8---8---8---8-)
E(-5-----5-------5-------6-----6-------6-------)

Riff 5 clean 1st ending 2nd ending
E(------------------------(-----------------------(--------)
B(------------------------(-----------------------(--------)
G(------7~----7-------7---(-----8~----8-------8---(-----8~-)
D(----7-----7---7---7---7-(---8-----8---8---8---8-(---8----)
A(--5-----5-------5-------(-6-----6-------6-------(-6------)
E(------------------------(-----------------------(--------)

Chorus (x8)

Riff 6 clean
E(--------------------------------)
B(--------------------------------)
D(------9~----9-------7--------5~-)
A(----7-----7---7---5---5----4----)
E(--0-----0-------0--------0------)

End.

********************************************
********************************************
Ten dům je tak zvláštní
jako bych ho znal
zas podlýhám vášním
když bránu otvírám

Jak peklem bych kráčel
když tady vidím stát
sbor všech lidskejch monster
těch měl bych se bát

Dav záhadnejch tváří
dál nám tady lžou
proč málem se tváří
že nevinný jsou

Pach krve z nich cítím
smrtící svatozář
a zlo jako frázi
svědomí na oltář

Dav záhadnejch...

Blázen ten kdo vchází
do muzea hrůz
se zlem se tu schází
čte ho z očí lůz

Dav záhadnejch...

********************************************
********************************************




 
»
Tvoje obľúbené položky
Tvoje obľúbené položky
»
Najnovšie videá
Najnovšie videá

»
Tvoje obľúbené piesne
Tvoje obľúbené piesne
»
Najnavštevovanejšie piesne
Najnavštevovanejšie piesne
Žít Svůj Sen - akordy a text

Slečna závist - akordy a text

Ztráty a nálezy - akordy a text

Žít svůj sen - akordy a text

Zimní Královna - akordy a text

Chtěl Bych Ti Říct - akordy a text

Nikotin - text

Apage Satanas - taby

Ztráty a nálezy (komplet) - taby

S.O.S - text

Zimní královna - akordy

Apage Satanas - akordy a text

Forrest Gump - akordy a text

Orion - text

Antikrist - text

Proč - text

Vstávej - text

Ztráty a Nálezy 2 - akordy

Dál, dál se ptej - akordy a text

Zimní královna (správně !!!) - taby

viac

»
Nové albumy interpreta
Nové albumy interpreta



home | interpreti | register piesní | cd & dvd shop | pripomienky/nápady | kontakt | ochrana údajov | inzercia