Arakain


piesne (280)

  texty (212)
  akordy (37)
  taby (57)
  preklady (0)


články (243)
Fotky (46)
diskusia
videá
diskografia
v obchode
odkazy
koncerty
sťahuj



pridaj vlastný článok

Arakain:
Na koncerty už nechodím. Pak musím vždy něco opravit, říká legenda rocku - Rudolf Rožďalovský patří k legendám zdejšího rocku. Za komunistů zakládal kapel... - idnes.cz


Arakain:
ROZHOVOR | Jiří Urban (Arakain): Název Respiratour je smutným odrazem
reality v nadsázce slovní hříčky
- Situace kolem koronaviru změnila plány mnohým muzikantům. Nejinak tomu bylo u kapely ... - IREPORT


Arakain:
ARAKAIN: „Thrash the Trash“ na exkluzivním tričku - Československo dýchalo první rok bez rdoušení prackami totalitního režimu a čerst... - spark


Arakain:
ROZHOVOR | Arakain: Byli jsme samá stížnost a zákaz. Kdo ví, co by bylo bez
revoluce, říká Urban
- Koncertní pauza vybízí k rozhovorům, muzikanti mají čas se zastavit a bilancovat. S... - IREPORT


Arakain:
10 desek - 10 nejoblíbenějších desek Jiřího Urbana - Kytarista Jiří Urban je zakládající a nejdéle hrající člen skupiny Arakain. S Ar...


Arakain:
Koncerty nám zrušili, zavzpomínejme na Rockový Majáles - Oblíbený festival proběhl 19. - 20. zaří 2020 proběhl v Bystřici nad Pernštejnem ... - spark


Arakain:
Smutný den pro pražské rockery. Dnes se zavře legendární žižkovský klub
Kain
- Dvacet let se scházeli milovníci tvrdých kytarových riffů v Rock Club Kain v Husits... - blesk.cz


Arakain:
Arakain v červnu a červenci vyrazí na letní parkety - Aktualizace: 02.06.2020 10:07 Vydáno: 02.06.2020, 10:07 foto Ilustrační foto - Skupi... - ceskenoviny.cz


Arakain:
Lucie Bílá kedysi a dnes: Aha, ako dospela do krásy - Lucie Bílá Lucie Bílá Zdroj: Ján Zemiar, pred 12 hodinami PRAHA - Dnes ni... - topky.sk


Arakain:
Dymytry obdrželi v O2 universu Platinovou desku z rukou Jiřího Urbana
staršího z Arakainu
- ireport.cz


 

Arakain

Fanúšikov: 3



A B C Č D E F G H CH I J K L Ľ M N O P Q R S Š T U V W X Y Z Ž



ako:
Arakain - Motýl noci
Arakain - Motýl noci

tlač

edituj
Pesničku videlo 3185 návštevníkov.

Kvalita tabov : bez hodnotenia
Hodnotilo ľudí: 0 ohodnoť aj ty

************************
* Arakain - Motýl noci *
*----------------------*
* Copyright Jan Dvořák *
************************

Toto je poprvé co píši tabulační rozpis.
Pokud se vám podaří opravit mé četné nepřesnoti, tak mi napište na dvorkaman@centrum.cz

Clear Ami G Dmi
E|--------0-------------------0-----------2---------------3-1-0---|
H|----1-----1-----------1-0-1---0-----0-----0---------3---------3-|
G|--2---2-----2-------2-------------0---0-----0-----2---2---------|
D|--------------2---2---------------------------0-0---------------|
A|0---------------0-----------------------------------------------|
E|--------------------------------2-------------------------------|

Distorze 1:04
E|------------|
H|------------|
G|------- |
D|7--5-3- 4X |
A|7--5-3- |
E|5--3-1------|

Předehra 2X
1. kytara hraje celou píseň 1. řádek

Distorze 1:53
E|-------------------------------------------|
H|-------------------------------------------|
G|---------5-7-5-7-5-7----------5-7-9--9-9-9-|
D|7-7-5-7--5-7-5-7-5-7--7-7-5-7-5-7-9--9-9-9-|
A|7-7-5-7--3-5-3-5-3-5--7-7-5-7-3-5-7--7-7-7-|
E|5-5-3-5---------------5-5-3-5--------------|


E|--------------------------------|
H|--------------------------------|
G|---------5-7-5-7-5-7------------|
D|7-7-5-7--5-7-5-7-5-7--7-7-5-7-2-|
A|7-7-5-7--3-5-3-5-3-5--7-7-5-7-2-|
E|5-5-3-5---------------5-5-3-5-0-|

sólo:
E|--------------------------------------------------------8-8----12-10-8-10-8-------------|
H|--------------10~\---------------------------------8-10-----10--------------12-13-12-10-|
G|7~\--------------------7-----------9-------------9--------------------------------------|
D|----9-10-11-7-----9-10---10-9--------10-9-10-9-7----------------------------------------|
A|----------------------------------------------------------------------------------------|
E|----------------------------------------------------------------------------------------|


E|-----------------------------------------------------------------------|
H|-----------------------------------------------------------------------|
G|----------9-------9----------------------------------9-7---------------|
D|10--10-12---10-12---12-10-9--9-10-12-10-10/9/7--9-7------10-9-10-9-7~\-|
A|-----------------------------------------------------------------------|
E|-----------------------------------------------------------------------|


E|-------------------------10/12~\------|
H|----------------10-10-10---------9-10-|
G|9-7---------7-9-----------------------|
D|----10-9-10---------------------------|
A|--------------------------------------|
E|--------------------------------------|



3:28 to samé jako 1:53 2X

3:57 závěr - akordy Ami, F, D, E, Ami
E|------------------------------|
H|------------------------------|
G|------------------------------|
D|--------------- -|
A|0-2-3-5-3-2-0-- To je vše... -|
E|--------------- -|


Doufám, že to není tak strašný...
Mě se to tak líbí, i když tam ty chybky jsou, ale já se to naučil už dříve i snima.


Vyrobeno v programu Tablature Maker ode mě


 
»
Tvoje obľúbené položky
Tvoje obľúbené položky
»
Najnovšie videá
Najnovšie videá

»
Tvoje obľúbené piesne
Tvoje obľúbené piesne
»
Najnavštevovanejšie piesne
Najnavštevovanejšie piesne
Žít Svůj Sen - akordy a text

Slečna závist - akordy a text

Ztráty a nálezy - akordy a text

Žít svůj sen - akordy a text

Zimní Královna - akordy a text

Chtěl Bych Ti Říct - akordy a text

Nikotin - text

Apage Satanas - taby

Ztráty a nálezy (komplet) - taby

S.O.S - text

Zimní královna - akordy

Apage Satanas - akordy a text

Forrest Gump - akordy a text

Orion - text

Antikrist - text

Proč - text

Vstávej - text

Ztráty a Nálezy 2 - akordy

Dál, dál se ptej - akordy a text

Zimní královna (správně !!!) - taby

viac

»
Nové albumy interpreta
Nové albumy interpreta



home | interpreti | register piesní | cd & dvd shop | pripomienky/nápady | kontakt | ochrana údajov | inzercia