Arakain


piesne (280)

  texty (212)
  akordy (37)
  taby (57)
  preklady (0)


články (243)
Fotky (46)
diskusia
videá
diskografia
v obchode
odkazy
koncerty
sťahuj



pridaj vlastný článok

Arakain:
Na koncerty už nechodím. Pak musím vždy něco opravit, říká legenda rocku - Rudolf Rožďalovský patří k legendám zdejšího rocku. Za komunistů zakládal kapel... - idnes.cz


Arakain:
ROZHOVOR | Jiří Urban (Arakain): Název Respiratour je smutným odrazem
reality v nadsázce slovní hříčky
- Situace kolem koronaviru změnila plány mnohým muzikantům. Nejinak tomu bylo u kapely ... - IREPORT


Arakain:
ARAKAIN: „Thrash the Trash“ na exkluzivním tričku - Československo dýchalo první rok bez rdoušení prackami totalitního režimu a čerst... - spark


Arakain:
ROZHOVOR | Arakain: Byli jsme samá stížnost a zákaz. Kdo ví, co by bylo bez
revoluce, říká Urban
- Koncertní pauza vybízí k rozhovorům, muzikanti mají čas se zastavit a bilancovat. S... - IREPORT


Arakain:
10 desek - 10 nejoblíbenějších desek Jiřího Urbana - Kytarista Jiří Urban je zakládající a nejdéle hrající člen skupiny Arakain. S Ar...


Arakain:
Koncerty nám zrušili, zavzpomínejme na Rockový Majáles - Oblíbený festival proběhl 19. - 20. zaří 2020 proběhl v Bystřici nad Pernštejnem ... - spark


Arakain:
Smutný den pro pražské rockery. Dnes se zavře legendární žižkovský klub
Kain
- Dvacet let se scházeli milovníci tvrdých kytarových riffů v Rock Club Kain v Husits... - blesk.cz


Arakain:
Arakain v červnu a červenci vyrazí na letní parkety - Aktualizace: 02.06.2020 10:07 Vydáno: 02.06.2020, 10:07 foto Ilustrační foto - Skupi... - ceskenoviny.cz


Arakain:
Lucie Bílá kedysi a dnes: Aha, ako dospela do krásy - Lucie Bílá Lucie Bílá Zdroj: Ján Zemiar, pred 12 hodinami PRAHA - Dnes ni... - topky.sk


Arakain:
Dymytry obdrželi v O2 universu Platinovou desku z rukou Jiřího Urbana
staršího z Arakainu
- ireport.cz


 

Arakain

Fanúšikov: 3



A B C Č D E F G H CH I J K L Ľ M N O P Q R S Š T U V W X Y Z Ž



ako:
Arakain - Karavana slibů - zatím bez sóla
Arakain - Karavana slibů - zatím bez sóla

tlač

edituj
Pesničku videlo 8352 návštevníkov.

Kvalita tabov : bez hodnotenia
Hodnotilo ľudí: 0 ohodnoť aj ty
  *** Autor textu: Aleš Brichta *** Autor hudby: Aleš Brichta

------------------
| Karavana slibů |
| Apage Satanas |
| Arakain |
------------------
Vytvořil: Jan Dvořák
e-mail: dvorkaman@centrum.cz

Pořád mi chybí mi dodělat sólo

Předehra 1x

Soumrak citu pohřbívá...

Touha modly uctívá...

1:04 Závoj obzor zakrývá..
1:20 Táhnou roky umíraj...
2:40 Soumrak citu pohřbívá...

Clear
E|--------------------------------------------------------0-------->>|
H|----------------------------------------------------------------->>|
G|----5-------5-------5-------5-------5-------5-------5-----5------>>|
D|--7---7---7---7---6---6---6---6---5---5---5---5---4---4-----7---->>|
A|--------------------------------------------------------------7-->>|
E|5-------5-------5-------5-------5-------5-------5---------------->>|

F G Ami
E|--------1-----1---------------0---------------0---------|
H|----------1---1-----------1-----1---------1-----1-------|
G|------------2-2---------2---2-----2-----2---2-----2-----|
D|----2---------3---------------------2---------------2---|
A|--3---3---------2-3-2-0---------------0---------------0-|
E|1-------------------------------------------------------|

Závrať z kroků velbloudích
0:58
1:36
C G Dmi Ami
E|--------0---------------1---------------1---------------0------->>|
H|----1-----1---------0-----0---0-----3-----3---3-----1-----1----->>|
G|--0---0-----0-----0---0-----0-----2---2-----2-----2---2--------->>|
D|--------------2-----------------0-----------------------------0->>|
A|3-----------------------------------------------0-----------2--->>|
E|----------------3----------------------------------------------->>|

C G Dmi
E|--------0---------------1--------1-|
H|----1-----1---------0-----0---0--3-|
G|--0---0-----0-----0---0-----0----2-|
D|--------------2------------------0-|
A|3--------------------------------0-|
E|----------------3------------------|


Distorze
1:51 Nevinný...
E|------------------------|
H|------------------------|
G|-------5-5-7-5-7--3-2-2-|
D|7-5-7--5-5-7-5-7--3-2-0-|
A|7-5-7--3-3-5-3-5--1-0-0-|
E|5-3-5-------------------|

2:00 Hodiny...

E|-------------------------|
H|-------------------------|
G|-------5-5-7-5-7--10-9-7-|
D|7-5-7--5-5-7-5-7--10-9-7-|
A|7-5-7--3-3-5-3-5--8--7-5-|
E|5-3-5--------------------|

2:08 Zas pochyby zhořknou...
E|-----------------------------|
H|-----------------------------|
G|5-------7--------5-5---------|
D|5--5-5--5--7-7-9-5-5--5--5-3-|
A|3--5-5--5--7-7-9-3-3--5--5-3-|
E|---3-3-----5-5-7------3--3-1-|


sólo 2:23
E|--------------------------------|
H|--------------------------------|
G|- Na tohle sólo zatim nemám... -|
D|--------------------------------|
A|--------------------------------|
E|--------------------------------|

2:56 Nevinný, myšlenky hřály...
E|----------------------------|
H|-|--------------------------|
G|-|-------5-5-7-5-7--3-2-2---|
D|-|7-5-7--5-5-7-5-7--3-2-0---|
A|-|7-5-7--3-3-5-3-5--1-0-0---|
E|--5-3-5---------------------|


E|------------------------------------------------------------|
H|---- První repetice -----|- Druhá repetice --a co ty?-------|
G|-------5-5-7-5-7--10-9-7-|--------5-5-7-5-7--7-9-10--9-7----|
D|7-5-7--5-5-7-5-7--10-9-7-|-7-5-7--5-5-7-5-7--7-9-10--9-7-7--|
A|7-5-7--3-3-5-3-5--8--7-5-|-7-5-7--3-3-5-3-5--5-7-8---7-5-7--|
E|5-3-5----------------------5-3-5-------------------------5--|


Vyrobeno v programu Tablature Maker - Jan Dvořák



 
»
Tvoje obľúbené položky
Tvoje obľúbené položky
»
Najnovšie videá
Najnovšie videá

»
Tvoje obľúbené piesne
Tvoje obľúbené piesne
»
Najnavštevovanejšie piesne
Najnavštevovanejšie piesne
Žít Svůj Sen - akordy a text

Slečna závist - akordy a text

Ztráty a nálezy - akordy a text

Žít svůj sen - akordy a text

Zimní Královna - akordy a text

Chtěl Bych Ti Říct - akordy a text

Nikotin - text

Apage Satanas - taby

Ztráty a nálezy (komplet) - taby

S.O.S - text

Zimní královna - akordy

Apage Satanas - akordy a text

Forrest Gump - akordy a text

Orion - text

Antikrist - text

Proč - text

Vstávej - text

Ztráty a Nálezy 2 - akordy

Dál, dál se ptej - akordy a text

Zimní královna (správně !!!) - taby

viac

»
Nové albumy interpreta
Nové albumy interpreta



home | interpreti | register piesní | cd & dvd shop | pripomienky/nápady | kontakt | ochrana údajov | inzercia