Arakain


piesne (280)

  texty (212)
  akordy (37)
  taby (57)
  preklady (0)


články (243)
Fotky (46)
diskusia
videá
diskografia
v obchode
odkazy
koncerty
sťahuj



pridaj vlastný článok

Arakain:
Na koncerty už nechodím. Pak musím vždy něco opravit, říká legenda rocku - Rudolf Rožďalovský patří k legendám zdejšího rocku. Za komunistů zakládal kapel... - idnes.cz


Arakain:
ROZHOVOR | Jiří Urban (Arakain): Název Respiratour je smutným odrazem
reality v nadsázce slovní hříčky
- Situace kolem koronaviru změnila plány mnohým muzikantům. Nejinak tomu bylo u kapely ... - IREPORT


Arakain:
ARAKAIN: „Thrash the Trash“ na exkluzivním tričku - Československo dýchalo první rok bez rdoušení prackami totalitního režimu a čerst... - spark


Arakain:
ROZHOVOR | Arakain: Byli jsme samá stížnost a zákaz. Kdo ví, co by bylo bez
revoluce, říká Urban
- Koncertní pauza vybízí k rozhovorům, muzikanti mají čas se zastavit a bilancovat. S... - IREPORT


Arakain:
10 desek - 10 nejoblíbenějších desek Jiřího Urbana - Kytarista Jiří Urban je zakládající a nejdéle hrající člen skupiny Arakain. S Ar...


Arakain:
Koncerty nám zrušili, zavzpomínejme na Rockový Majáles - Oblíbený festival proběhl 19. - 20. zaří 2020 proběhl v Bystřici nad Pernštejnem ... - spark


Arakain:
Smutný den pro pražské rockery. Dnes se zavře legendární žižkovský klub
Kain
- Dvacet let se scházeli milovníci tvrdých kytarových riffů v Rock Club Kain v Husits... - blesk.cz


Arakain:
Arakain v červnu a červenci vyrazí na letní parkety - Aktualizace: 02.06.2020 10:07 Vydáno: 02.06.2020, 10:07 foto Ilustrační foto - Skupi... - ceskenoviny.cz


Arakain:
Lucie Bílá kedysi a dnes: Aha, ako dospela do krásy - Lucie Bílá Lucie Bílá Zdroj: Ján Zemiar, pred 12 hodinami PRAHA - Dnes ni... - topky.sk


Arakain:
Dymytry obdrželi v O2 universu Platinovou desku z rukou Jiřího Urbana
staršího z Arakainu
- ireport.cz


 

Arakain

Fanúšikov: 3



A B C Č D E F G H CH I J K L Ľ M N O P Q R S Š T U V W X Y Z Ž



ako:
Arakain - Zimní královna - správně
Arakain - Zimní královna - správně

tlač

edituj
Pesničku videlo 12728 návštevníkov.

Kvalita tabov :
Hodnotilo ľudí: 1 ohodnoť aj ty

Gt. I (intro)

E ------12---------12---------12---------12---
H -12---------12---------12---------12--------
G ----9----9-----9----9-----9----9-----9----9-
D --------------------------------------------
A --------------------------------------------
E --------------------------------------------

Gt. II (sloka 2) + Gt. I (jako intro)

E --7--------2--------4-----------0-----7--------2-----------0----0---
B ----7--------2--------4--------0-0------7--------2--------0-0---0---
G ------9--------4--------6-----2---2-------9--------4-----2---2--2---
D -------9--------4--------6---2-----2-------9--------4---2-----2-2---
A -7------7-2------2-4------4-0--------7------7-2------2-0--------0---
E --------------------------------------------------------------------

Gt. II - SOLO (1) + Gt. I (změna) = vybrnkávání (E H C#mi A E H A)
(viz Sloka 1) PŘESNĚJI - (Esus2 Hsus2 C#sus2 Asus2
Esus2 Hsus2 Asus2)

E ------------------------------------------------12-11-9------9-----------
B -9--9------------9-----9-12-9--------9--9--12-----------12-----12-9-10-12
G -------11---9-11----11--------11-9---------------------------------------
D -------------------------------------------------------------------------
A -------------------------------------------------------------------------
E -------------------------------------------------------------------------

SLOKA 1 (Gt. II) + Gt. I (jako intro) (2x)

- vybrnkávání (E H C#mi A E H A)
- PŘESNĚJI - (Esus2 Hsus2 C#sus2 Asus2 Esus2 Hsus2 Asus2)

E -----7--------2--------4---------0--------7--------0----0-----
B ----7-7------2-2------4-4-------0-0------7-7------0-0---0-----
G ---9---9----4---4----6---6-----2---2----9---9----2---2--2-----
D --9-----9--4-----4--6-----6---2-----2--9-----9--2-----2-2-----
A -7--------2--------4--------0---------7--------0--------0-----
E --------------------------------------------------------------


REF. (2x)

E ---------------------------------------------------------
B ---------------------------------------------------------
G -9-9-9-9-9-----------------------------------------------
D -9-9-9-9-9-----9-9-9-9-9-----7-7-7-7-7-----11-11---9-9---
A -7-7-7-7-7-----9-9-9-9-9-----7-7-7-7-7-----11-11---9-9---
E ---------------7-7-7-7-7-----5-5-5-5-5-----9--9----7-7---

E ---------------------------------------------------------
B ---------------------------------------------------------
G -9-9-9-9-9-----------------------------------------------
D -9-9-9-9-9-----9-9-9-9-9-----7---------------------------
A -7-7-7-7-7-----9-9-9-9-9-----7---------------------------
E ---------------7-7-7-7-7-----5---------------------------


SLOKA 2 (Gt. II) + Gt. I (jako intro) (2x)

E --7--------2--------4-----------0-----7--------2-----------0----0---
B ----7--------2--------4--------0-0------7--------2--------0-0---0---
G ------9--------4--------6-----2---2-------9--------4-----2---2--2---
D -------9--------4--------6---2-----2-------9--------4---2-----2-2---
A -7------7-2------2-4------4-0--------7------7-2------2-0--------0---
E --------------------------------------------------------------------


REF. (2x)

E ---------------------------------------------------------
B ---------------------------------------------------------
G -9-9-9-9-9-----------------------------------------------
D -9-9-9-9-9-----9-9-9-9-9-----7-7-7-7-7-----11-11---9-9---
A -7-7-7-7-7-----9-9-9-9-9-----7-7-7-7-7-----11-11---9-9---
E ---------------7-7-7-7-7-----5-5-5-5-5-----9--9----7-7---

E ---------------------------------------------------------
B ---------------------------------------------------------
G -9-9-9-9-9-----------------------------------------------
D -9-9-9-9-9-----9-9-9-9-9-----7---------------------------
A -7-7-7-7-7-----9-9-9-9-9-----7---------------------------
E ---------------7-7-7-7-7-----5---------------------------


Gt. II - SOLO (2) + Gt. I = vybrnkávání (E H C#mi A E H A)
PŘESNĚJI - (Esus2 Hsus2 C#sus2 Asus2
Esus2 Hsus2 Asus2)

E ----------------------------------------9-------(12-12-11-9)--9----------
B -9-9----------9----9-12-9-------9-9-12----12-10-------------12-12-9-10-12
G -----11--9-11---11--------11-9-------------------------------------------
D -------------------------------------------------------------------------
A -------------------------------------------------------------------------
E -------------------------------------------------------------------------


REF. (2x)

E ---------------------------------------------------------
B ---------------------------------------------------------
G -9-9-9-9-9-----------------------------------------------
D -9-9-9-9-9-----9-9-9-9-9-----7-7-7-7-7-----11-11---9-9---
A -7-7-7-7-7-----9-9-9-9-9-----7-7-7-7-7-----11-11---9-9---
E ---------------7-7-7-7-7-----5-5-5-5-5-----9--9----7-7---

E ---------------------------------------------------------
B ---------------------------------------------------------
G -9-9-9-9-9-----------------------------------------------
D -9-9-9-9-9-----9-9-9-9-9-----7---------------------------
A -7-7-7-7-7-----9-9-9-9-9-----7---------------------------
E ---------------7-7-7-7-7-----5---------------------------


Gt. I (jako intro)

E ------12---------12-----------12------------------12----------------0---
H -12---------12---------12--------------12---------------------------0---
G ----9----9-----9----9------9------9----------9-----------9----------1---
D --------------------------------------------------------------------2---
A --------------------------------------------------------------------2---
E --------------------------------------------------------------------0---



 
»
Tvoje obľúbené položky
Tvoje obľúbené položky
»
Najnovšie videá
Najnovšie videá

»
Tvoje obľúbené piesne
Tvoje obľúbené piesne
»
Najnavštevovanejšie piesne
Najnavštevovanejšie piesne
Žít Svůj Sen - akordy a text

Slečna závist - akordy a text

Ztráty a nálezy - akordy a text

Žít svůj sen - akordy a text

Zimní Královna - akordy a text

Chtěl Bych Ti Říct - akordy a text

Nikotin - text

Apage Satanas - taby

Ztráty a nálezy (komplet) - taby

S.O.S - text

Zimní královna - akordy

Apage Satanas - akordy a text

Forrest Gump - akordy a text

Orion - text

Antikrist - text

Proč - text

Vstávej - text

Ztráty a Nálezy 2 - akordy

Dál, dál se ptej - akordy a text

Zimní královna (správně !!!) - taby

viac

»
Nové albumy interpreta
Nové albumy interpreta



home | interpreti | register piesní | cd & dvd shop | pripomienky/nápady | kontakt | ochrana údajov | inzercia