Arakain


piesne (280)

  texty (212)
  akordy (37)
  taby (57)
  preklady (0)


články (243)
Fotky (46)
diskusia
videá
diskografia
v obchode
odkazy
koncerty
sťahuj



pridaj vlastný článok

Arakain:
Na koncerty už nechodím. Pak musím vždy něco opravit, říká legenda rocku - Rudolf Rožďalovský patří k legendám zdejšího rocku. Za komunistů zakládal kapel... - idnes.cz


Arakain:
ROZHOVOR | Jiří Urban (Arakain): Název Respiratour je smutným odrazem
reality v nadsázce slovní hříčky
- Situace kolem koronaviru změnila plány mnohým muzikantům. Nejinak tomu bylo u kapely ... - IREPORT


Arakain:
ARAKAIN: „Thrash the Trash“ na exkluzivním tričku - Československo dýchalo první rok bez rdoušení prackami totalitního režimu a čerst... - spark


Arakain:
ROZHOVOR | Arakain: Byli jsme samá stížnost a zákaz. Kdo ví, co by bylo bez
revoluce, říká Urban
- Koncertní pauza vybízí k rozhovorům, muzikanti mají čas se zastavit a bilancovat. S... - IREPORT


Arakain:
10 desek - 10 nejoblíbenějších desek Jiřího Urbana - Kytarista Jiří Urban je zakládající a nejdéle hrající člen skupiny Arakain. S Ar...


Arakain:
Koncerty nám zrušili, zavzpomínejme na Rockový Majáles - Oblíbený festival proběhl 19. - 20. zaří 2020 proběhl v Bystřici nad Pernštejnem ... - spark


Arakain:
Smutný den pro pražské rockery. Dnes se zavře legendární žižkovský klub
Kain
- Dvacet let se scházeli milovníci tvrdých kytarových riffů v Rock Club Kain v Husits... - blesk.cz


Arakain:
Arakain v červnu a červenci vyrazí na letní parkety - Aktualizace: 02.06.2020 10:07 Vydáno: 02.06.2020, 10:07 foto Ilustrační foto - Skupi... - ceskenoviny.cz


Arakain:
Lucie Bílá kedysi a dnes: Aha, ako dospela do krásy - Lucie Bílá Lucie Bílá Zdroj: Ján Zemiar, pred 12 hodinami PRAHA - Dnes ni... - topky.sk


Arakain:
Dymytry obdrželi v O2 universu Platinovou desku z rukou Jiřího Urbana
staršího z Arakainu
- ireport.cz


 

Arakain

Fanúšikov: 3



A B C Č D E F G H CH I J K L Ľ M N O P Q R S Š T U V W X Y Z Ž



ako:
Arakain - Kamennej anděl - sólo
Arakain - Kamennej anděl - sólo

tlač

edituj
Rok vzniku: 2006
Poznámka: Ur?it? je tu spousta chyb, ale snad to postaci jako hrubej zaklad.

Pesničku videlo 5361 návštevníkov.

Kvalita tabov : bez hodnotenia
Hodnotilo ľudí: 0 ohodnoť aj ty
  *** Autor textu: Aleš Brichta *** Autor hudby: Ji?í Urban

Arakain - Kamennej Anděl - sólo
---------------------------------------

e--------------12--I------------------------------------------9-10---
h--------8-10------I---12----8----12----8---------------10-12--------
g--9--11-----------I.-----9-----9-----9---9----9-11-12---------------
d------------------I.-----------------------12-----------------------
a------------------I-------------------------------------------------
e------------------I-------------------------------------------------

e--12----8----12----8-----12-10-8----------------------------------------------------7-8-
h-----10---10----10---10----------12-10-8---------10---7---10---7---------------8-10-----
g-----------------------------------------10--9------8---8----8---8-----7-9-10-----------
d--------------------------------------------------------------------10------------------
a----------------------------------------------------------------------------------------
e----------------------------------------------------------------------------------------

e--10---7---10---7---9-8-7-----------------------------------------4-6-7---
h-----8---8----8---8-------9-8-7-------8---5---8---5---------4-5-7---------
g--------------------------------9-7-----6---6---6---6--4--6---------------
d--------------------------------------------------------------------------
a--------------------------------------------------------------------------
e--------------------------------------------------------------------------

e--8---5---8---5----8-6-5---------5--I
h----5---5---5---5--------8-5-6-8----I
g-----------------------------------.I
d-----------------------------------.I
a------------------------------------I
e------------------------------------I

1.
e----------------------------------5-------------------------------------
h---------------5-----5-6---5-6-8----8-6-5-8-6-5---5---------------------
g---4-5-7-4-5-7---5-7-----7----------------------7---7-5-4-7-5-4---------
d-7--------------------------------------------------------------7-------
a-----------------------------------------------------------------------
e-----------------------------------------------------------------------

2.
e-------------5---------12---------------
h--------------------------12------------
g-Postupka-od---do------------9----------
d----------------------------------------
a----------------------------------------
e-------------------0--------------------

 
»
Tvoje obľúbené položky
Tvoje obľúbené položky
»
Najnovšie videá
Najnovšie videá

»
Tvoje obľúbené piesne
Tvoje obľúbené piesne
»
Najnavštevovanejšie piesne
Najnavštevovanejšie piesne
Žít Svůj Sen - akordy a text

Slečna závist - akordy a text

Ztráty a nálezy - akordy a text

Žít svůj sen - akordy a text

Zimní Královna - akordy a text

Chtěl Bych Ti Říct - akordy a text

Nikotin - text

Apage Satanas - taby

Ztráty a nálezy (komplet) - taby

S.O.S - text

Zimní královna - akordy

Apage Satanas - akordy a text

Forrest Gump - akordy a text

Orion - text

Antikrist - text

Proč - text

Vstávej - text

Ztráty a Nálezy 2 - akordy

Dál, dál se ptej - akordy a text

Zimní královna (správně !!!) - taby

viac

»
Nové albumy interpreta
Nové albumy interpreta



home | interpreti | register piesní | cd & dvd shop | pripomienky/nápady | kontakt | ochrana údajov | inzercia