Arakain


piesne (280)

  texty (212)
  akordy (37)
  taby (57)
  preklady (0)


články (243)
Fotky (46)
diskusia
videá
diskografia
v obchode
odkazy
koncerty
sťahuj



pridaj vlastný článok

Arakain:
Na koncerty už nechodím. Pak musím vždy něco opravit, říká legenda rocku - Rudolf Rožďalovský patří k legendám zdejšího rocku. Za komunistů zakládal kapel... - idnes.cz


Arakain:
ROZHOVOR | Jiří Urban (Arakain): Název Respiratour je smutným odrazem
reality v nadsázce slovní hříčky
- Situace kolem koronaviru změnila plány mnohým muzikantům. Nejinak tomu bylo u kapely ... - IREPORT


Arakain:
ARAKAIN: „Thrash the Trash“ na exkluzivním tričku - Československo dýchalo první rok bez rdoušení prackami totalitního režimu a čerst... - spark


Arakain:
ROZHOVOR | Arakain: Byli jsme samá stížnost a zákaz. Kdo ví, co by bylo bez
revoluce, říká Urban
- Koncertní pauza vybízí k rozhovorům, muzikanti mají čas se zastavit a bilancovat. S... - IREPORT


Arakain:
10 desek - 10 nejoblíbenějších desek Jiřího Urbana - Kytarista Jiří Urban je zakládající a nejdéle hrající člen skupiny Arakain. S Ar...


Arakain:
Koncerty nám zrušili, zavzpomínejme na Rockový Majáles - Oblíbený festival proběhl 19. - 20. zaří 2020 proběhl v Bystřici nad Pernštejnem ... - spark


Arakain:
Smutný den pro pražské rockery. Dnes se zavře legendární žižkovský klub
Kain
- Dvacet let se scházeli milovníci tvrdých kytarových riffů v Rock Club Kain v Husits... - blesk.cz


Arakain:
Arakain v červnu a červenci vyrazí na letní parkety - Aktualizace: 02.06.2020 10:07 Vydáno: 02.06.2020, 10:07 foto Ilustrační foto - Skupi... - ceskenoviny.cz


Arakain:
Lucie Bílá kedysi a dnes: Aha, ako dospela do krásy - Lucie Bílá Lucie Bílá Zdroj: Ján Zemiar, pred 12 hodinami PRAHA - Dnes ni... - topky.sk


Arakain:
Dymytry obdrželi v O2 universu Platinovou desku z rukou Jiřího Urbana
staršího z Arakainu
- ireport.cz


 

Arakain

Fanúšikov: 3



A B C Č D E F G H CH I J K L Ľ M N O P Q R S Š T U V W X Y Z Ž



ako:
Arakain - Amadeus - oprava!!!!
Arakain - Amadeus - oprava!!!!

tlač

edituj
Rok vzniku: 2006
Poznámka: oprava, snad uz bude neco z toho dobre...:)

Pesničku videlo 4625 návštevníkov.

Kvalita tabov :
Hodnotilo ľudí: 1 ohodnoť aj ty
  *** Autor textu: Aleš Brichta *** Autor hudby: Marek Podskalský

Amadeus
-----------

hlavni riff - 4x
e-------------------------------------------------------------------
h-------------------------------------------------------------------
g-9-------9-10----9--8---12-9-10------------------------------------
d-9--8----9-10----9--8---12-9-10------------------------------------
a-7--8----7--8----7--6---10-7--8------------------------------------
e----6--------------------------------------------------------------


riff 2 - 2x
e----------------------------------------------------------------------------------
h----------------------------------------------------------------------------------
g----------------------------------------------------------------------------------
d----------------------------------------------------------------------------------
a-0-0-0-0-0-0-0-0-2-0-0-0-3-0-0-0-5-7-8-7----0-0-0-0-0-0-0-0-2-0-0-0-3-0-0-0-5-7-8-
e----------------------------------------------------------------------------------

e----------------------------------------------------------------------------------
h----------------------------------------------------------------------------------
g----------------------------------------------------------------------------------
d----------------------------------------------------------------------------------
a-0-0-0-0-0-0-0-0-2-0-0-0-3-0-0-0-5-7-8-7----0-0-0-0-0-0-0-0-2-0-0-0-3-0-0-0-3-2-3-
e----------------------------------------------------------------------------------

riff 3 (refren) - 2x
e-------------------------------------------------------------------------------------
h-------------------------------------------------------------------------------------
g-9-----------------------9-10--10-10-10-10-10-10-10-10---9--8--8-8-8-8-8---12-9-10---
d-9--8--8-8-8-8-8-8-8-8---9-10--10-10-10-10-10-10-10-10---9--8--8-8-8-8-8---12-9-10---
a-7--8--8-8-8-8-8-8-8-8---7--8--8--8--8--8--8--8--8--8----7--6--6-6-6-6-6---10-7--8---
e----6--6-6-6-6-6-6-6-6---------------------------------------------------------------

PM............... ....................... .........

riff 4 - na sloky
e---------------------------------------------------------------------------------------
h---------------------------------------------------------------------------------------
g--9-9-9---9-9--------9-9-9---9-9--------9-9-9---9-9--------9-9-9---9-9-----------------
d--9-9-9---9-9--------9-9-9---9-9--------9-9-9---9-9--------9-9-9---9-9-----------------
a--7-7-7---7-7--------7-7-7---7-7--7-8---7-7-7---7-7--7-6---7-7-7---7-7--9-8------------
e---------------7-6---------------------------------------------------------------------

PM... ... ... ...

riff 5 - 2x
e---------------------------------------------------------------------------------------
h---------------------------------------------------------------------------------------
g--9-9-9-9--9-9-9-9--9-9-9-9--------------9-9-9-9--9-9-9-9--9-9-9-9---------------------
d--9-9-9-9--9-9-9-9--9-9-9-9--------------9-9-9-9--9-9-9-9--9-9-9-9---------------------
a--7-7-7-7--7-7-7-7--7-7-7-7--7-8----7----7-7-7-7--7-7-7-7--7-7-7-7--7-8----7-----------
e---------------------------------10-------------------------------------10-------------

PM.......................... ...................................

e----------------------------------------------------------------------------------
h----------------------------------------------------------------------------------
g----------------------------------------------------------------------------------
d----------------------------------------------------------------------------------
a-0-0-0-0-0-0-0-0-2-0-0-0-3-0-0-0-5-7-8-7----0-0-0-0-0-0-0-0-2-0-0-0-3-0-0-0-5-7-8-
e----------------------------------------------------------------------------------

riff 1

solo (zatim nemam)

Mozartovska vyhravka po sole:

e-----------------------------------------------
h-----------------5-8---6---6---6---------------
g--5---5---5---5----------7---7---7--4--7-------
d----5---5---5----------------------------5-----
a-----------------------------------------------
e-----------------------------------------------

riff 4

refren


 
»
Tvoje obľúbené položky
Tvoje obľúbené položky
»
Najnovšie videá
Najnovšie videá

»
Tvoje obľúbené piesne
Tvoje obľúbené piesne
»
Najnavštevovanejšie piesne
Najnavštevovanejšie piesne
Žít Svůj Sen - akordy a text

Slečna závist - akordy a text

Ztráty a nálezy - akordy a text

Žít svůj sen - akordy a text

Zimní Královna - akordy a text

Chtěl Bych Ti Říct - akordy a text

Nikotin - text

Apage Satanas - taby

Ztráty a nálezy (komplet) - taby

S.O.S - text

Zimní královna - akordy

Apage Satanas - akordy a text

Forrest Gump - akordy a text

Orion - text

Antikrist - text

Proč - text

Vstávej - text

Ztráty a Nálezy 2 - akordy

Dál, dál se ptej - akordy a text

Zimní královna (správně !!!) - taby

viac

»
Nové albumy interpreta
Nové albumy interpreta



home | interpreti | register piesní | cd & dvd shop | pripomienky/nápady | kontakt | ochrana údajov | inzercia