System Of A Down


piesne (393)

  texty (184)
  akordy (10)
  taby (121)
  preklady (83)


články (45)
Fotky (40)
diskusia
videá
diskografia
v obchode
odkazy
koncerty
sťahuj



pridaj vlastný článok

System Of A Down:
VIDEO: V klipu 'Rumi' se Serj Tankian vyznává z lásky ke svému synovi - Frontman System Of A Down Serj Tankian vydal v březnu pětiskladbové EP "Elasticity". N... - musicserver.cz


System Of A Down:
Chop Suey od System Of A Down bola vyhlásená za najväčšiu metalovú skladbu
21. storočia
- Legendárny časopis Metal Hammer zverejnil zoznam 100 najlepších skladieb 21. storoči...


System Of A Down:
SYSTEM OF A DOWN opatřili klipem svoji nejčerstvější skladbu - Vloni na podzim se po dlouhých 15 letech probudili k životu SYSTEM OF A DOWN, když vyd... - spark


System Of A Down:
VIDEO: System Of A Down klipem k songu 'Genocidal Humanoidz' vyjadřují podporu
Arménům
- Jakkoliv to na plnohodnotné album formace System Of A Down asi nevypadá, kapela vloni v... - musicserver.cz


System Of A Down:
Chystá se dokument o Serji Tankianovi ze SYSTEM OF A DOWN - Chystaný dokumentární snímek „Truth To Power“ zaostří na aktivismus zpěváka S... - spark


System Of A Down:
RETRO: System Of A Down vyvedli tápající publikum ze slepé uličky, kam
tvrdou hudbu dostal nu metal
- System Of A Down probudila k životu až válka. Na pomoc postiženým konfliktem v Náho... - IREPORT


System Of A Down:
Nové skladby System Of a Down! - Obscuro.cz | Metalové novinky a obscurnosti Obscuro.cz | Metalové novinky a obscurnost... - obscuro.cz


System Of A Down:
VIDEO: System Of A Down zveřejnili po patnácti letech dvě nové skladby.
Politika ale vítězí nad hudbou
- Je to už dlouhých patnáct let, co formace System Of A Down vydala své poslední album... - musicserver.cz


System Of A Down:
Vskutku metalová veselka v Nigérii. Svatebčané běsnili na System of a Down - System of a Down letos do Česka už nepřijedou, což nepotěšilo tisíce tuzemských f...


System Of A Down:
Serj Tankian vydá album so skladbami, ktoré boli určené pre System Of A Down - Článok bol publikovaný 19. mája 2020 Spevák a frontman kapely System Of A Down odha... - music-zone.eu


 

System Of A Down

Fanúšikov: 0



A B C Č D E F G H CH I J K L Ľ M N O P Q R S Š T U V W X Y Z Ž



ako:
System Of A Down - Roulette
System Of A Down - Roulette

tlač

edituj
V originále: Z prdele! Ne kecam z netu!
Poznámka: Je to dobrá vydrnkáva?ka!

Pesničku videlo 10338 návštevníkov.

Kvalita tabov :
Hodnotilo ľudí: 8 ohodnoť aj ty
  *** Autor textu: *** Autor hudby: Systémy né!

Intro/Verse
|--------------------------------------------------------|
|---6-----6-------10-----5-------8-----8-----3-------5---| x4
|--------------------------------------------------------|
|--------------------------------------------------------|
|-5---5-5---5-5/8----0-3---3-3/6---6-6---0-1---1-1/3---3-|
|--------------------------------------------------------|

Chorus
|---------------------------------------------------|
|---6-----6-----2-----2-----5-----5-----3-------5---| x2
|---------------------------------------------------|
|---------------------------------------------------|
|-5---5-5---5-0---0-0---0-3---3-3---3-1---1-1/3---3-|
|---------------------------------------------------|

Solo
|-10---10-12-13---12-13-15---12-13-15-13--12--10--12--13-12-10-10--------|
|-----------------------------------------------------------------10--10-|
|------------------------------------------------------------------------|
|------------------------------------------------------------------------|
|------------------------------------------------------------------------|
|------------------------------------------------------------------------|

|-----------------------------------------65-5-53-3-31-1-1/3-|
|-10-11-13-11--10--8--10--11-10-8-8-------86-5-65-5-53-3-3/5-|
|-----------------------------------5-5-------------------------|
|---------------------------------------------------------------|
|---------------------------------------------------------------|
|---------------------------------------------------------------|


 
»
Tvoje obľúbené položky
Tvoje obľúbené položky
»
Najnovšie videá
Najnovšie videá

»
Tvoje obľúbené piesne
Tvoje obľúbené piesne
»
Najnavštevovanejšie piesne
Najnavštevovanejšie piesne
Lonely Day - akordy a text

Lonely Day - akordy a text

Chop Suey ! - akordy a text

Lonely Day - text

04-04-Cigaro - preklad

B.y.o.b - text

04-07-Violent Pornography - text

Darts - preklad

Toxicity - akordy a text

Chop Suey - preklad

Roulette - akordy a text

B.y.o.b. - preklad

Aerials - preklad

Hypnotize - taby

Roulette - taby

Toxicity - preklad

04-09-Sad Statue - text

Forest - text

Chop Suey! - text

Boom - text

viac

»
Nové albumy interpreta
Nové albumy interpreta



home | interpreti | register piesní | cd & dvd shop | pripomienky/nápady | kontakt | ochrana údajov | inzercia