System Of A Down


piesne (393)

  texty (184)
  akordy (10)
  taby (121)
  preklady (83)


články (45)
Fotky (40)
diskusia
videá
diskografia
v obchode
odkazy
koncerty
sťahuj



pridaj vlastný článok

System Of A Down:
VIDEO: V klipu 'Rumi' se Serj Tankian vyznává z lásky ke svému synovi - Frontman System Of A Down Serj Tankian vydal v březnu pětiskladbové EP "Elasticity". N... - musicserver.cz


System Of A Down:
Chop Suey od System Of A Down bola vyhlásená za najväčšiu metalovú skladbu
21. storočia
- Legendárny časopis Metal Hammer zverejnil zoznam 100 najlepších skladieb 21. storoči...


System Of A Down:
SYSTEM OF A DOWN opatřili klipem svoji nejčerstvější skladbu - Vloni na podzim se po dlouhých 15 letech probudili k životu SYSTEM OF A DOWN, když vyd... - spark


System Of A Down:
VIDEO: System Of A Down klipem k songu 'Genocidal Humanoidz' vyjadřují podporu
Arménům
- Jakkoliv to na plnohodnotné album formace System Of A Down asi nevypadá, kapela vloni v... - musicserver.cz


System Of A Down:
Chystá se dokument o Serji Tankianovi ze SYSTEM OF A DOWN - Chystaný dokumentární snímek „Truth To Power“ zaostří na aktivismus zpěváka S... - spark


System Of A Down:
RETRO: System Of A Down vyvedli tápající publikum ze slepé uličky, kam
tvrdou hudbu dostal nu metal
- System Of A Down probudila k životu až válka. Na pomoc postiženým konfliktem v Náho... - IREPORT


System Of A Down:
Nové skladby System Of a Down! - Obscuro.cz | Metalové novinky a obscurnosti Obscuro.cz | Metalové novinky a obscurnost... - obscuro.cz


System Of A Down:
VIDEO: System Of A Down zveřejnili po patnácti letech dvě nové skladby.
Politika ale vítězí nad hudbou
- Je to už dlouhých patnáct let, co formace System Of A Down vydala své poslední album... - musicserver.cz


System Of A Down:
Vskutku metalová veselka v Nigérii. Svatebčané běsnili na System of a Down - System of a Down letos do Česka už nepřijedou, což nepotěšilo tisíce tuzemských f...


System Of A Down:
Serj Tankian vydá album so skladbami, ktoré boli určené pre System Of A Down - Článok bol publikovaný 19. mája 2020 Spevák a frontman kapely System Of A Down odha... - music-zone.eu


 

System Of A Down

Fanúšikov: 0



A B C Č D E F G H CH I J K L Ľ M N O P Q R S Š T U V W X Y Z Ž



ako:
System Of A Down - Hypnotize
System Of A Down - Hypnotize

tlač

edituj
Rok vzniku: 2006
V originále: -
Pesničku videlo 16382 návštevníkov.

Kvalita tabov :
Hodnotilo ľudí: 12 ohodnoť aj ty
Autor hudby: Daron Malakain
||----------------------------------|----------------------------------||
||o-1---1---3---3---3---3---3---3---|-4---4---3---3---1---1---0---0---o||
||----0---0---0---0---0---0---0---0-|---0---0---0---0---0---0---0---0--||
||----------------------------------|----------------------------------||
||o---------------------------------|---------------------------------o||
||----------------------------------|----------------------------------||


S S S S S S S S S S S S S S S S S S S S S S S S S S S S S S S S
||------------------------------------|------------------------------------------||
||o-8---8---7---7---10---10---8---8---|-12---12---10---10---13---13---12---12---o||
||----0---0---0---0----0----0---0---0-|----0----0----0----0----0----0----0----0--||
||------------------------------------|------------------------------------------||
||o-----------------------------------|-----------------------------------------o||
||------------------------------------|------------------------------------------||


N.C.
S S S S S S S S S S S S S S S S S S S S S S S S S S S S S S S S
|-----------------------------------------|---------------------------------------|
|-15---15---13---13---12---12---10---10---|-13---13---12---12---10---10---8---8---|
|----0----0----0----0----0----0----0----0-|----0----0----0----0----0----0---0---0-|
|-----------------------------------------|---------------------------------------|
|-----------------------------------------|---------------------------------------|
|-----------------------------------------|---------------------------------------|


S S S S S S S S S S S S S S S S
|-------------------------------------|
|-11---11---10---10---8---8---7---7---|
|----0----0----0----0---0---0---0---0-|
|-------------------------------------|
|-------------------------------------|
|-------------------------------------|



Gb5 D5 Gb5 D5
Q E. S E E S S E Q E. S E E S S E 4x
||----------------------------------|----------------------------------||
||o---------------------------------|---------------------------------o||
||--------------------------8-8-8---|-------------------------8-8-8----||
||--5-------5-----5-5---5---8-8-8---|-5-------5-----5-5---5---8-8-8----||
||o-5-------5-----5-5---5---6-6-6---|-5-------5-----5-5---5---6-6-6---o||
||--5-------5-----5-5---5-----------|-5-------5-----5-5---5------------||

N.C.
S S S S S S S S S S S S S S S S S S S S S S S S S S S S S S S S
|-----------------------------------------|---------------------------------------|
|-15---15---13---13---12---12---10---10---|-13---13---12---12---10---10---8---8---|
|----0----0----0----0----0----0----0----0-|----0----0----0----0----0----0---0---0-|
|-----------------------------------------|---------------------------------------|
|-----------------------------------------|---------------------------------------|
|-----------------------------------------|---------------------------------------|

S S S S S S S S S S S S S S S S
|-------------------------------------|
|-11---11---10---10---8---8---7---7---|
|----0----0----0----0---0---0---0---0-|
|-------------------------------------|
|-------------------------------------|
|-------------------------------------|



Q E. S E E S S E Q E. S E E S S E
|---------------------------------|---------------------------------|
|---------------------------------|---------------------------------|
|-------------------------8-8-8---|-------------------------8-8-8---|
|-5-------5-----5-5---5---8-8-8---|-5-------5-----5-5---5---8-8-8---|
|-5-------5-----5-5---5---6-6-6---|-5-------5-----5-5---5---6-6-6---|
|-5-------5-----5-5---5-----------|-5-------5-----5-5---5-----------|



Gb5 D5 D5 E5
E E E E E E E E E E E E S S S S E E
|---------------------------------|---------------------------------------|
|---------------------------------|---------------------------------------|
|-----------------7---7---7---7---|-8---8---8---8---10-10-10-10-10---10---|
|-5---5---5---5---7---7---7---7---|-8---8---8---8---10-10-10-10-10---10---|
|-5---5---5---5---5---5---5---5---|-6---6---6---6----8--8--8--8--8----8---|
|-5---5---5---5-------------------|---------------------------------------|
...I'm just sitting in my car...


A5 Db5
Q Q Q Q
|---------------------------------|
|---------------------------------|
|-----------------7-------7-------|
|-8-------8-------7-------7-------|
|-8-------8-------5-------5-------|
|-8-------8-------0-------0-------|




Gb5 Db5 E5 Gb5 Db5 E5 Gb5 Db5 E5 Gb5 Db5 E5
S. T S S S. T S S S. T S S S. T S S
||----------------------------------------------------------------------||
||o--------------------------------------------------------------------o||
||----------------------------------------------------------------------||
||----------------------------------------------------------------------||
||o-5-----0-0---3---5-----0-0---3---5-----0-0---3---5-------0--0---3---o||
||--5-----0-0---3---5-----0-0---3---5-----0-0---3---5-------0--0---3----||

| H Q S T T E
||------------------------------------------------------19-19-19--------||
||o-----------------------------------------------------20-20-20-------o||
||------------------------------------------------------19-19-19--------||
||----------------------------------------------------------------------||
||o--------------------------------------------------------------------o||
||----------------------------------------------------------------------||




S S S S S S S S S S S S S S S S S S S S S S S S S S S S S S S S
||----------------------------------|----------------------------------||
||o-1---1---3---3---3---3---3---3---|-4---4---3---3---1---1---0---0---o||
||----0---0---0---0---0---0---0---0-|---0---0---0---0---0---0---0---0--||
||----------------------------------|----------------------------------||
||o---------------------------------|---------------------------------o||
||----------------------------------|----------------------------------||


S S S S S S S S S S S S S S S S S S S S S S S S S S S S S S S S
||------------------------------------|------------------------------------------||
||o-8---8---7---7---10---10---8---8---|-12---12---10---10---13---13---12---12---o||
||----0---0---0---0----0----0---0---0-|----0----0----0----0----0----0----0----0--||
||------------------------------------|------------------------------------------||
||o-----------------------------------|-----------------------------------------o||
||------------------------------------|------------------------------------------||



S. T S S S. T S S S. T S S S. T S S 8x
||---------------------------------------------------------------------||
||o-------------------------------------------------------------------o||
||---------------------------------------------------------------------||
||---------------------------------------------------------------------||
||o-5-----0-0---3---5-----0-0---3---5-----0-0---3---5-------0-0---3---o||
||--5-----0-0---3---5-----0-0---3---5-----0-0---3---5-------0-0---3----||




H Q S T T E 4x
||------------------------------------------------------19-19-19--------||
||o-----------------------------------------------------20-20-20-------o||
||------------------------------------------------------19-19-19--------||
||----------------------------------------------------------------------||
||o--------------------------------------------------------------------o||
||----------------------------------------------------------------------||


Q S T T E Q S T T E 4x
||-------------------19-19-19---------------------------19-19-19--------||
||o------------------20-20-20---------------------------20-20-20-------o||
||-------------------19-19-19---------------------------19-19-19--------||
||----------------------------------------------------------------------||
||o--------------------------------------------------------------------o||
||----------------------------------------------------------------------||



Q.. S Q.. T T
||-----------------------------------------|
||o-------------------12-------------12-13-|
||--12-------------14----------------------|
||-----------------------------------------|
||o----------------------------------------|
||-----------------------------------------|


|--3--| |--3--|
S S S S T T T S S S S S S S T T T S S S
|--------------------------------------------------------------||
|-15-13-12-13-12h13p12----12----------12-13-12h13p12----12----o||
|----------------------14----14-12-14----------------14----14--||
|--------------------------------------------------------------||
|-------------------------------------------------------------o||
|--------------------------------------------------------------||



E E E E E E E E E E E E E E E E
||------------------------------------|------------------------------------------||
||o-8---8---7---7---10---10---8---8---|-12---12---10---10---13---13---12---12---o||
||------------------------------------|------------------------------------------||
||------------------------------------|------------------------------------------||
||o-----------------------------------|-----------------------------------------o||
||------------------------------------|------------------------------------------||





E E E E E E E E E E E E E E E E
|---------------------------------|-------------------------------------|
|---------------------------------|-------------------------------------|
|-----------------7---7---7---7---|-8---8---8---8---10---10---10---10---|
|-5---5---5---5---7---7---7---7---|-8---8---8---8---10---10---10---10---|
|-5---5---5---5---5---5---5---5---|-6---6---6---6----8----8----8----8---|
|-5---5---5---5-------------------|-------------------------------------|


Q Q Q Q
|---------------------------------|
|---------------------------------|
|-----------------7-------7-------|
|-8-------8-------7-------7-------|
|-8-------8-------5-------5-------|
|-8-------8-------0-------0-------|


PM-------------------------------------------------------------|
S. T S S S. T S S S. T S S S. T S S
||----------------------------------------------------------------------||
||o--------------------------------------------------------------------o||
||----------------------------------------------------------------------||
||----------------------------------------------------------------------||
||o-5-----0-0---3---5-----0-0---3---5-----0-0---3---5-------0--0---3---o||
||--5-----0-0---3---5-----0-0---3---5-----0-0---3---5-------0--0---3----||


S S S S Q S S S S Q S S S S Q S S S S Q
|---------------------------------|-------------------------------------|
|---------------------------------|-------------------------------------|
|-----------------7-7-7-7---------|-8-8-8-8---------10-10-10-10---------|
|-5-5-5-5---------7-7-7-7---------|-8-8-8-8---------10-10-10-10---------|
|-5-5-5-5---------5-5-5-5---------|-6-6-6-6----------8--8--8--8---------|
|-5-5-5-5-------------------------|-------------------------------------|


H H +W
|---------------------------------|-----------------------------------|
|---------------------------------|-----------------------------------|
|-----------------7---------------|-(7)-------------------------------|
|-8---------------7---------------|-(7)-------------------------------|
|-8---------------5---------------|-(5)-------------------------------|
|-8---------------0---------------|-(0)-------------------------------|





S S S S S S S S S S S S S S S S S S S S S S S S S S S S S S E W
|---------------------------------|---------------------------------|---------|
|-1---1---3---3---3---3---3---3---|-4---4---3---3---1---1---1h3p1---|-0-------|
|---0---0---0---0---0---0---0---0-|---0---0---0---0---0---0---------|-0-------|
|---------------------------------|---------------------------------|---------|
|---------------------------------|---------------------------------|---------|
|---------------------------------|---------------------------------|---------|




Autor : Lulo



 
»
Tvoje obľúbené položky
Tvoje obľúbené položky
»
Najnovšie videá
Najnovšie videá

»
Tvoje obľúbené piesne
Tvoje obľúbené piesne
»
Najnavštevovanejšie piesne
Najnavštevovanejšie piesne
Lonely Day - akordy a text

Lonely Day - akordy a text

Chop Suey ! - akordy a text

Lonely Day - text

04-04-Cigaro - preklad

B.y.o.b - text

04-07-Violent Pornography - text

Darts - preklad

Toxicity - akordy a text

Chop Suey - preklad

Roulette - akordy a text

B.y.o.b. - preklad

Aerials - preklad

Hypnotize - taby

Roulette - taby

Toxicity - preklad

04-09-Sad Statue - text

Forest - text

Chop Suey! - text

Boom - text

viac

»
Nové albumy interpreta
Nové albumy interpreta



home | interpreti | register piesní | cd & dvd shop | pripomienky/nápady | kontakt | ochrana údajov | inzercia